t. See http://www.olga.net/faq/ for more information. #
Date: Mon, 20 Mar 2000 15:12:05 -0500
From: "Ice Bag"
Subject: o/our_lady_peace/stealing_babies.tab
Tabbed By Jay Butler
Band:Our Lady Peace
Song:Stealing Babies (Track 11)
Album:Happiness...Is Not A Fish That You Can Catch
Send any corrections or comments to [email protected]
Comments By The Author:
It's not a hard song to play, just some standard bar chords.
Be careful with the rhythm though,
listen to your CD to get it right!
Jay
TAB:
Standard tuning
Intro: (w/ overdrive)
Bm D G Bm D G
e---------2-2-|-3-3-3-3-3-3-3-|---------2-2-|-3-3-3-3-3-3-3-
B-3-3-3-3-3-3-|-3-3-3-3-3-3-3-|-3-3-3-3-3-3-|-3-3-3-3-3-3-3-
G-4-4-4-4-2-2-|-0-0-0-0-0-0-0-|-4-4-4-4-2-2-|-0-0-0-0-0-0-0-
D-4-4-4-4-0-0-|-0-0-0-0-0-0-0-|-4-4-4-4-0-0-|-0-0-0-0-0-0-0-
A-2-2-2-2-----|-2-2-2-2-2-2-2-|-2-2-2-2-----|-2-2-2-2-2-2-2-
E-------------|-3-3-3-3-3-3-3-|-------------|-3-3-3-3-3-3-3-
Verse: (w/ distortion)
Bm F# A E
e-------------|-2-2-2-2-2-2-2-|-0-0-0-0-0-0-0-|-0-0-0-0-0-0-0-
B-3-3-3-3-3-3-|-2-2-2-2-2-2-2-|-2-2-2-2-2-2-2-|-0-0-0-0-0-0-0-
G-4-4-4-4-4-4-|-3-3-3-3-3-3-3-|-2-2-2-2-2-2-2-|-1-1-1-1-1-1-1-
D-4-4-4-4-4-4-|-4-4-4-4-4-4-4-|-2-2-2-2-2-2-2-|-2-2-2-2-2-2-2-
A-2-2-2-2-2-2-|-4-4-4-4-4-4-4-|-0-0-0-0-0-0-0-|-2-2-2-2-2-2-2-
E-------------|-2-2-2-2-2-2-2-|---------------|-0-0-0-0-0-0-0-
Pre-Chorus: (w/ distortion)
Bm A G
e-------------|-0-0-0-0-0-0-0-|-3-3-3-3-3-3-3-
B-3-3-3-3-3-3-|-2-2-2-2-2-2-2-|-3-3-3-3-3-3-3-
G-4-4-4-4-4-4-|-2-2-2-2-2-2-2-|-0-0-0-0-0-0-0-
D-4-4-4-4-4-4-|-2-2-2-2-2-2-2-|-0-0-0-0-0-0-0-
A-2-2-2-2-2-2-|-0-0-0-0-0-0-0-|-2-2-2-2-2-2-2-
E-------------|---------------|-3-3-3-3-3-3-3-
Bm A G F#
e-------------|-0-0-0-0-0-0-0-|-3-3-3-3-3-3-3-|-2-2-2-2-2-2-2-
B-3-3-3-3-3-3-|-2-2-2-2-2-2-2-|-3-3-3-3-3-3-3-|-2-2-2-2-2-2-2-
G-4-4-4-4-4-4-|-2-2-2-2-2-2-2-|-0-0-0-0-0-0-0-|-3-3-3-3-3-3-3-
D-4-4-4-4-4-4-|-2-2-2-2-2-2-2-|-0-0-0-0-0-0-0-|-4-4-4-4-4-4-4-
A-2-2-2-2-2-2-|-0-0-0-0-0-0-0-|-2-2-2-2-2-2-2-|-4-4-4-4-4-4-4-
E-------------|---------------|-3-3-3-3-3-3-3-|-2-2-2-2-2-2-2-
Pre-Verse / Fill: (w/ overdrive)
Bm D G
e---------2-2-|-3-3-3-3-3-3-3-
B-3-3-3-3-3-3-|-3-3-3-3-3-3-3-
G-4-4-4-4-2-2-|-0-0-0-0-0-0-0-
D-4-4-4-4-0-0-|-0-0-0-0-0-0-0-
A-2-2-2-2-----|-2-2-2-2-2-2-2-
E-------------|-3-3-3-3-3-3-3-
Bridge:
e----------------------------------------------
B----------------------------------------------
G-------14----14/16-13-------------------------
D-14/16----16----------14-------12----12/14-14-
A-------------------------12/14----14----------
E----------------------------------------------
Outro:
D A G A
D A G A
e-2-2-2-2-2-2-|-0-0-0-0-0-0-0-|-3-3-3-3-3-3-3-|-0-0-0-0-0-0-0-
B-3-3-3-3-3-3-|-2-2-2-2-2-2-2-|-3-3-3-3-3-3-3-|-2-2-2-2-2-2-2-
G-2-2-2-2-2-2-|-2-2-2-2-2-2-2-|-0-0-0-0-0-0-0-|-2-2-2-2-2-2-2-
D-0-0-0-0-0-0-|-2-2-2-2-2-2-2-|-0-0-0-0-0-0-0-|-2-2-2-2-2-2-2-
A-------------|-0-0-0-0-0-0-0-|-2-2-2-2-2-2-2-|-0-0-0-0-0-0-0-
E-------------|---------------|-3-3-3-3-3-3-3-|---------------
Order:
Verse:
Pre-chorus:
Chorus:
Verse:




Ваше мнение



Капча