Intro:
C#sus4 Asus4 1st ending: 2nd ending:
e---------------------------------------| |-----------| |-----------|
B---7--7--7-7~--3--3--3-3~---7--7--7-7~-| |----3~~~---| |---2~~~----|
G---------------------------------------| |-----------| |-----------|
D-6--6--------2--2---------6--6---------| |--2--------| |-1---------|
A---------------------------------------| |-----------| |-----------|
E---------------------------------------| |-----------| |-----------|

Verse:
C#sus4 Asus4 Bsus4 G#sus4
e----------------------------------------------|
B---7--7-7--7~---3--3-3--3~---5-5--5~---2--2-2~|
G----------------------------------------------|
D-6--6---------2--2---------4---------1---1----|
A----------------------------------------------|
E----------------------------------------------|

Pre-Chorus: Chorus Part 1: Chorus Part 2:
Eb5 E5 G#5 E5 F#5 E5 G#5 E5 F#5 G#
e------------| e-----------------------------| |---------------------------|
B------------| B-----------------------------| |---------------------------|
G-8-8-9-9~~~-| G-----------------------------| |---------------------5-5---|
D-8-8-9-9~~~-| D-6-6-6-6-2-2-2-4--4-4-4--2---| |-6-6-6-2-2-2-4--4-4--6-6---|
A-6-6/7-7~~~-| A-6-6-6-6-2-2-2-4--4-4-4--2---| |-6-6-6-2-2-2-4--4-4--6-6---|
E------------| E-4-4-4-4-0-0-0-2--2-2-2--0---| |-4-4-4-0-0-0-2--2-2--4-4---|

Solo: Interlude: F#[xx4676] G#?[xx68108] (These are D chords on higher frets
e---------------| except for the weird G# chord)
B-7-7brbr-7-5---|
G-------------6~|
D---------------|
A---------------|
E---------------|

Outro:
Variations of this
e-------------------------|
B-14-16-14-16-14-16-14~~~-|
G-------------------------|
D-------------------------|
A-------------------------|
E-------------------------|

Song Order:
Intro w/ ending 1 x2
Intro w/ ending 2 x1
Verse x2
Pre-Chorus x7
Chorus Part 1 x2
Chorus Part 2 x1
Chorus Part 1 x2
Intro w/ 1st ending x1
Verse x2
Pre-Chorus x7
Chorus Part 1 x2
Chorus Part 2 x1
Chorus Part 1 x2
Solo x4
Interlude along w/ words x?
Chorus Part 1 x2
Chorus Part 2 x1
Chorus Part 1 x2
Outro x?




Ваше мнение



Капча