Our Lady Peace
Right Behind You (Spiritual Mafia)
Tabbed by: Marc L.
Tuning (Eb Ab Db Gb Bb Eb)
Intro (You You You...)
Q E E E E E E Q 5x E E E E E E Q
|--------3-3--------||-5-5-3-3----------|
|----3-3-----3-3---o||---------3-3------|
|-0--------------0--||-------------0----|
|-------------------||------------------|
|------------------o||------------------|
|-------------------||------------------|
Verse (You haven't seen...)

C5 G/B D5 A5
1. 2.,3.
W W W H Q Q E E E E E E E E E E E E E E E E E E E E E E E E Q. E H
|---|---|----||--------||-----------------|-----------------|------------------|--------|
|---|---|---o||-------o||-----------------|-----------------|------------------|--------|
|-5-|-5-|-7--||-7-2-4--||-5-5-5-5-5-5-5-5-|-----------------|------------------|-2--2-2-|
|-5-|-5-|-7--||-7-2-4--||-5-5-5-5-5-5-5-5-|-5-5-5-5-5-5-5-5-|-5-5-5-5-5-5-5-5--|-2--2-2-|
|-3-|-2-|-5-o||-5-0-2-o||-3-3-3-3-3-3-3-3-|-2-2-2-2-2-2-2-2-|-3-3-3-3-3-3-3-3--|-0--0-0-|
|---|---|----||--------||-----------------|-----------------|------------------|--------|
Chorus (No matter what...)
C5 D5 E5G5 A5 E5 A5
Q Q E E E 3x H E E E
||-------------||------------|
||o-----------o||------------|
||--5-5-7-9----||-2----------|
||--5-5-7-9-5--||-2-2-2-5----|
||o-3-3-5-7-5-o||-0-2-2-5----|
||----------3--||---0-0-3----|
Thats it....Raine plays around with the volume and effects latter on but its the same chords.
Questions, Comments send em to [email protected]
Duration Legend
---------------
W - whole; H - half; Q - quarter; E - 8th; S - 16th; T - 32nd; X - 64th; a - acciaccatura
+ - note tied to previous; . - note dotted; .. - note double dotted
Misc Legend
-----------
| - bar
|| - double bar
||o - repeat start
3x
o|| - repeat end o|| - repeat 3 times etc...
1. - first ending 2. - second ending etc..




Ваше мнение



Капча