Band Name: Our Lady Peace
Song Name: Out of Here
Tuning: Standard (E,A,D,G)

This song was never actually released. I found out about it at www.ourladypeace.cc.
So I got a copy of it on Kazaa, you can do the same, although to my knowledge
the only recorded copy is of poor quality. But if you?re a true OLP fan you?ll check it out!

Intro/Verse:
G-|----------------------------------------------------------------------------------|
D-|----------------------------------------------------------------------------------|
A-|----------------------------------------------------------------------------------|
E-|-2-0-0-0-0-0---2-0-2-0-0-0-0-0-0-0------------------------------------------------|

Interlude:
G-|----------------------------------------------------------------------------------|
D-|----------------------------------------------------------------------------------|
A-|----------------------------------------------------------------------------------|
E-|--2-2-2-2-2-2-2-2---3-3-3-3---5-5-5-5---------------------------------------------|

Pre-Chorus:
G-|----------------------------------------------------------------------------------|
D-|----------------------------------------------------------------------------------|
A-|-5-5-5-5-5-5-5-5---3-3-3-3-3-3-3-3---5-5-5-5-5-5-5-5---3-3-3-2-2-2----------------|
E-|--------------------------------------------------------------------3-2-----------|

Chorse:
G-|----------------------------------------------------------------------------------|
D-|----------------------------------------------------------------------------------|
A-|-----------------------------3-3--3-3-3--3---5------------------------------------|
E-|-0-0--0-0-0--0-2-2--2-2-2--2---------------------3--2-----------------------------|

G-|----------------------------------------------------------------------------------|
D-|----------------------------------------------------------------------------------|
A-|-----------------------------3-3--3-3-3--3-0-0-0-0-0-0-0-0------------------------|
E-|-0-0--0-0-0--0-2-2--2-2-2--2------------------------------------------------------|

Bridge (riff 1&2 of 3):
G-|----------------------------------------------------------------------------------|
D-|----------------------------------------------------------------------------------|
A-|-2-0-0--2-0-0--2-0--2-0-0--2-0-0--2-0---------------------------------------------|
E-|----------------------------------------3-0-0----3-0-0----------------------------|

(riff 3 of 3):
G-|----------------------------------------------------------------------------------|
D-|----------------------------------------------------------------------------------|
A-|-2-0-0--2-0-0--2-0--2-0-0--2-0-0--2-0--3----3-------------------------------------|
E-|----------------------------------------------------------------------------------|

Final riff of last chorus:
G-|----------------------------------------------------------------------------------|
D-|----------------------------------------------------------------------------------|
A-|------------------------------3-3--3-3-3--3-3---3---3-2---------------------------|
E-|-0-0--0-0-0--0-2-2--2-2-2--2------------------------------3-0---------------------|

Any comments on this tab are welcome; my e-mail address is [email protected]




Ваше мнение



Капча