Song: Not Afraid
Band: Our Lady Peace
Tabbed by: Marc L.
Tuning (Eb Ab Db Gb Bb Eb)
Awesome song played by OLP at the junos 2003. Pretty sure this is correct.
Intro/Verse
E S S Q S S S E Q E S S Q S E E Q
|-------------------------|----------------------||
|---------8------------8--|---------8---------8-o||
|------------10p9p7-------|-----------9h10-10----||
|-----(10)----------10----|-----(10)-------------||
|---10--------------------|---10----------------o||
|-8-----------------------|-8--------------------||
the Db is played sometimes thats why its bracketed.
Chorus
C# G# A# F#
|-3--3--5--1--||
|-5--3--5--1-o||
|-5--4--5--2--||
|-5--5--7--3--||
|-3--5--7--3-o||
|----3--5--1--||
For the bride Steve uses some slides and volume swells with large distortion
and also plays these power chords during some parts
C#5 G#5
|-----------||
|----------o||
|-5-5-------||
|-5-5--5-5--||
|-3-3--5-5-o||
|------3-3--||
During the second verse steve uses the same chords as the chorus
just with alot of palm muting and some delay.
Duration Legend
---------------
W - whole; H - half; Q - quarter; E - 8th; S - 16th
Tablature Legend
----------------
h - hammer-on
p - pull-off
b - bend




Ваше мнение



Капча