Neon Crossing
Our Lady Peace: Naveed
Tabbed by Scott Grant ([email protected])
Tune down half a step! (Eb Ab Db Gb)
Then tune your Eb down to a C#!
You'll have to figure out the rhythm yourself, but it's not too hard..
The (#)'s represent part numbers..
Intro
-----
0:04 (1)
Gb ------------------------------|------------------------------
Db ------------------------------|------------------------------
Ab --2--0-2--0-2-0------0--0---0-|-2--0-2--0-2-0---------------- x2
C# ----------------5--5------5---|---------------2--2-2--5-4-5--
0:19 (2)
Gb ----------------------------
Db ----------------------------
Ab --2--0-2---0---------------- x4
C# -------------2--0-2--2-2-2--
0:34 (3)
-1-e-+-a-2-e-+-a-3-e-+-a-4-e-+-a-1-e-+-a-2-e-+-a-3-e-+-a-4-e-+-a-
Ab -0-0---0---0---0---0---0---0-----0-0---0---0---0---0---0---0---0-
C# -------------------------------5---------------------------------
0:42 CHORUS
Gb ---------------------------------|--------------------------------
Db -------------------0--0----------|--------------------------------
Ab --2--2-0--2--0-2-0------0--0---0-|-2--2-0-2--0-2-0----------0-0-0-
C# -----------------------------5---|------------------5--5-5--------
Play (1) to (3), then CHORUS
1:43
Ab ------------------------------------------ x4
C# --0h5-0h5-0h4-0h2-2-2--0h5-0h5-0h5-0h4-2--
Repeat (1) here once, not twice..
2:07
Ab --2----2----2----2----2----2--
C# ------------------------------
Play (3), then CHORUS, then end with this..
Ab --2-2-2-2-2------------------------------------------------------
C# -----------------------------------------------------------------
Thar we go.. Enjoy!
Send comments, suggestions, flames, etc..




Ваше мнение



Капча