OLP - Needle & the Damage Done

Intro:

Eb-------5--0-------(5)-|
Bb-3--3--3--3--3--3-(5)-|
Gb-2--2--0--0--2--0--2--|
Db-0--3--2--2--0--0--2--|
Ab-3-----------3--2--0--|
Eb----------------------|

verse:

Eb--------0--|-------5---|
Bb-3---3--5--|-3--3--5---|
Gb-2---4--5--|-2--2--2---|
Db-0---0-(0)-|-0--3--2---|
Ab-0---0-(0)-|-3-----2---|
Eb-----------|-----------|

Eb--------0--|-----------|
Bb-3---3--5--|-3--3--3---|
Gb-2---4--5--|-2--2--2---|
Db-0---0-(0)-|-0--3--0---|
Ab-0---0-(0)-|-3-----0---|
Eb-----------|-----------|

chorus:

Eb-0-2-0---0-----0-----0---|
Bb-3-----3---3-3---3-3---3-|
Gb-2-----0-----0-----0-----|
Db-0-----0-----0-----0-----|
Ab-0-----3-----2-----1-----|
Eb-------------------------|

Cadd9
Eb---------------------------------|
Bb---------------------------------|
Gb-------------2-2-3-3-2-2---------|
Db-----2-2-5-5-------------5-5-3-3-|
Ab-3-3-----------------------------|
Eb---------------------------------|

Esus4 E
Eb---------------------------------------------------
Bb---------------------------------------------------
Gb-2-2-2-------------------1-1-1---------------------
Db-------2-2-2-------2-2-2-------2-2-2--------2-2-2--
Ab-------------2-2-2-------------------2-2-2--------
Eb---------------------------------------------------




Ваше мнение



Капча