Group: Our Lady Peace
Song: Life
Album: Spiritual Machines
Tabbed By: Daniel Jones
[email protected]
Tuned down half a step
Intro/Verse:
Guitar 1
e#:------------------------------
B#:------------------------------
G#:------------------------------
D#:------------------------------
A#:----12--12--9--7--5--5--5--7--
E#:--10---9---7--5--3--2--3--5---
Guitar 2
e#:-------12----------12----------12----------12-----
B#:--15------15--14------14--12------12----------12--
G#:--------------------------------------14----------
D#:--------------------------------------------------
A#:--------------------------------------------------
E#:--------------------------------------------------

e#:--------------------------------------------------
B#:-----12---------12--------12-----10--12--10-------
G#:--12----12---11----11--12----12-------------------
D#:--------------------------------------------------
A#:--------------------------------------------------
E#:--------------------------------------------------
Chorus:
Guitar 1 Strum
e#:----------------------------
B#:----------------------------
G#:----------------------------
D#:----------------------------
A#:--12--12--9--7--5--5--5--7--
E#:--10---9--7--5--3--2--3--5--
Guitar 2 |||Strum|||
e#:--------0-----0-------0---------0--3--2--3--0--
B#:------3---------3-------3-----3----3--3--3--2--
G#:----2-------2-------2-------2------0--2--0--2--
D#:--0--------------------------------0--0--0--2--
A#:----------4-------2-------0--------2--x--2--0--
E#:-----------------------------------3--2--3--x--

Bridge:
Guitar 1 plays -D5-A5- lightly
Guitar 2
G#:--11--11--11-12-14--------------11-12-11--
D#:-------------------11-12-14--14----------- x2
A#:------------------------------------------

Interlude:
Guitar 1
D#:-------------------------------------------------22222222--
A#:--5555555--5555--22222222--5555--55555555--5555--00000000--
E#:--3333333--2222--00000000--2222--33333333--2222---------
Guitar 2 Strumming
e#:--3--2--0--2--3--2--0--
B#:--3--3--2--3--3--3--2--
G#:--0--2--2--2--0--2--2--
D#:--0--0--2--0--0--0--2--
A#:--2--x--0--x--2--x--0--
E#:--3--2--x--2--3--2--x--
Solo:
Guitar 1 plays -D5-A5-
Guitar 2
e#:------------3-5-----------------------
B#:--7--7--7-7-----2-3-5--5-7-7)8-8(7p5-- x2
G#:--------------------------------------
e#:------------3-5/75-5-5---------- --12~12~12~12~12~-
B#:--7--7--7-7-------------5-5-5-5-- x2 ------------------
G#:--------------------------------- ------------------




Ваше мнение



Капча