This song starts off with a drum beat let it go through twice then play
Intro/verse1 repeat 2x
E]-----------------------------------------------------------------
B]-----------------------------------------------------------------
G]-----------------------------------------------------------------
D]-0-00-00-00-02-7-77-77-77-7/9-5-55-55-55-55-9-999-7-77-7777------
A]-----------------------------------------------------------------
E]-----------------------------------------------------------------

Prechorus 1x
E]-----------------------------------------------------------------
B]-----------------------------------------------------------------
G]-----------------------------------------------------------------
D]-5-55-55-55-5h7-7-77-77-77-7po5-5-55-55-55-55-9-999-7-77-7777----
A]-----------------------------------------------------------------
E]-----------------------------------------------------------------
chorus 2x
E]--------------------------------------------------------------------
B]--------------------------------------------------------------------
G]-7-77-77-77-77--9-99-99-99-9-13-7-77-77-77-77--13-13-13-13-9-999999-
D]-7-77-77-77-77--7-77-77-77-7-11-5-55-55-55-55--11-11-11-11-7-777777-
A]-5-55-55-55-55--0-00-00-00-0/0--0-00-00-00-00--0--0--0--0--0-000000-
E]--------------------------------------------------------------------

verse2 2x
E]-x-xx----x-xx----x-xx-----------------------------------------------
B]-x-xx----x-xx----x-xx-----------------------------------------------
G]-x-xx----x-xx----x-xx-----------------------------------------------
D]-0-00----7-77----5-55--9-999--7--77-7777----------------------------
A]-0-00----7-77--- 5-55--9-999--7--77-7777----------------------------
E]-0-00----7-77----5-55--9-999--7--77-7777----------------------------

Prechorus 1x
E]------x--------x--------x-------------------------------------------
B]------x--------x--------x-------------------------------------------
G]------x--------x--------x-------------------------------------------
D]-55--5x5--77--7x7--55--5x5-9-999-7-77-7777--------------------------
A]-55--5x5--77--7x7--55--5x5-9-999-7-77-7777--------------------------
E]-55--5x5--77--7x7--55--5x5-9-999-7-77-7777--------------------------

chorus 2x
E]--------------------------------------------------------------------
B]--------------------------------------------------------------------
G]-7-77-77-77-77--9-99-99-99-9-13-7-77-77-77-77--13-13-13-13-9-999999-
D]-7-77-77-77-77--7-77-77-77-7-11-5-55-55-55-55--11-11-11-11-7-777777-
A]-5-55-55-55-55--0-00-00-00-0/0--0-00-00-00-00--0--0--0--0--0-000000-
E]--------------------------------------------------------------------

Interlude repeat alot of times
E]-10-10-10-10-10-10-10-10-10-10-10-10-10-10-10-10-10-10-10-10-10-10--
B]-10-10-10-10-10-10-10-10-10-10-10-10-10-10-10-10-10-10-10-10-10-10--
G]-7--7--9--9--9--9--7--7--9--7--7--7--7--7--7--9--9--9--9--7--7--9---
D]-0--0--0--0--0--0--0--0--0--0--0--0--0--0--0--0--0--0--0--0--0--0---
A]-0--0--0--0--0--0--0--0--0--0--0--0--0--0--0--0--0--0--0--0--0--0---
E]--------------------------------------------------------------------

Prechorus 1x
E]------x--------x--------x-------------------------------------------
B]------x--------x--------x-------------------------------------------
G]------x--------x--------x-------------------------------------------
D]-55--5x5--77--7x7--55--5x5-9-999-7-77-7777--------------------------
A]-55--5x5--77--7x7--55--5x5-9-999-7-77-7777--------------------------
E]-55--5x5--77--7x7--55--5x5-9-999-7-77-7777--------------------------

and then you play the chorus a bunch of times, I'm to lazy to write it out again
but it's up there.This tab is correct but the interlude has to be played quickly
with a up-down strumming pattern.Theres 2 guitars in the song and if anyone can
figure out the tab for the 2nd guitar please tab it.Noone has this song tab
correct so I tabbed it.

L8Z This was tabbed by the pimp


Ваше мнение



Капча