If You believe
______________
tabbed by: Jason (OLPKID) :)
OLP tunning:
Eb ab db gb bb eb
****************
= slide down *
/ = slide up *
[x] = harmonic *
****************
Timing not shown (strumming not shown)
on the first part there are 3 overdubs
goes
all the| |
way | |
through| X4| X3 4th time
eb-|-----|---|------------------------------------|------------------------------------|
bb-|--10-|---|-10-10--10-10--10-10----------------|-10-10--10-10--10-10--10--10-10-10--|
gb-|--9--|-2-|-12-12--12-12--12-12-11-12p11p9h11--|-12-12--12-12--12-12--12--12-12-12--|
db-|--7--|-2-|------------------------------------|------------------------------------|
ab-|--7--|-0-|------------------------------------|------------------------------------|
eb-|-----|---|------------------------------------|------------------------------------|
verse (Rythem not shown)
eb-|----------|
bb-|----------|
gb-|-2--5-----|
db-|-2--5--5--|
ab-|-0--3--5--|
eb-|-------3--|
eb-|-----|------------------------------------|
bb-|--10-|-10-10--10-10--10-10----------------|
gb-|--9--|-12-12--12-12--12-12-11-12p11p9h11--|
db-|--7--|------------------------------------| X1
ab-|--7--|------------------------------------|
eb-|-----|------------------------------------|
(rythem not shown)
eb-|----------|
bb-|----------|
gb-|-2--5-----|
db-|-2--5--5--|
ab-|-0--3--5--|
eb-|-------3--|
X2
eb-|-----|------------------------------------|
bb-|--10-|-10-10--10-10--10-10----------------|
gb-|--9--|-12-12--12-12--12-12-11-12p11p9h11--|
db-|--7--|------------------------------------|
ab-|--7--|------------------------------------|
eb-|-----|------------------------------------|
Chorus
KeyBoard
| X2| X2
eb-|-----|---|------------------------------------|
bb-|--10-|---|-10-10--10-10--10-10----------------|
gb-|--9--|-2-|-12-12--12-12--12-12-11-12p11p9h11--|
db-|--7--|-2-|------------------------------------|
ab-|--7--|-0-|------------------------------------|
eb-|-----|---|------------------------------------|
(rythem not shown)
eb-|-------------------------------|
bb-|-------------------------------|
gb-|-2--5-5-5/115--5-11--16-------|
db-|-2--x-x-x/x-x--x-x----x--4-5--|
ab-|-0--3-3-3/9-3--3-9---14--4-5--|
eb-|--------------------------2-3--|
eb-|-----|------------------------------------|
bb-|--10-|-10-10--10-10--10-10----------------|
gb-|--9--|-12-12--12-12--12-12-11-12p11p9h11--|
db-|--7--|------------------------------------|
ab-|--7--|------------------------------------|
eb-|-----|------------------------------------|
(rythem not shown)
eb-|-------------|
bb-|-------------|
gb-|-------------|
db-|--7--10--5---|
ab-|--7--10--5---|
eb-|--5---8--3---|
X2
eb-|-----|------------------------------------|
bb-|--10-|-10-10--10-10--10-10----------------|
gb-|--9--|-12-12--12-12--12-12-11-12p11p9h11--|
db-|--7--|------------------------------------|
ab-|--7--|------------------------------------|
eb-|-----|------------------------------------|
Chorus
KeyBoard
NOTE: guitar one seems to be using ONE high harmonic with whammy....
guitar 2 uses whammy to excel the note UP..
one guitar guitar 2 mute
eb-|-------------|------[3]-----------|-------|
bb-|-------------|--------------------|-------|
gb-|-------------|-[?]----------[2]---|-------|
db-|-[3]--[3]----|--------------------|---7---|
ab-|-------------|--------------------|---7---|
eb-|-------------|--------------------|---5---|
Rythem Solo
eb-|-------------------|-----------------------------------------------------------------------|
bb-|-------------------|-----------------------------------------------------------------------|
gb-|-------------------|-7B(9)7---7B(9)7-----------7B(9)7-----------7B(9)-----7B(9)-----8B(10)-|
db-|-12-10--7--12--10--|--------7--------7-5-5-5-5--------7-5h7-7-7-------7~~------7-5-5-------|
ab-|-12-10--7--12--10--|-----------------------------------------------------------------------|
eb-|-10--8--5--10---8--|-----------------------------------------------------------------------|eb-|-----|------------------------------------|
bb-|--10-|-10-10--10-10--10-10----------------|
gb-|--9--|-12-12--12-12--12-12-11-12p11p9h11--| X1
db-|--7--|------------------------------------|
ab-|--7--|------------------------------------|
eb-|-----|------------------------------------|
eb-|-----|-------------------|
bb-|--10-|-10-10--10-10--10--|
gb-|--9--|-12-12--12-12--12--|
db-|--7--|-------------------|
ab-|--7--|-------------------|
eb-|-----|-------------------|
Chorus
eb-|-------------------|
bb-|-------------------|
gb-|-----(9)-----------|
db-|-3---10----7---5---| X3
ab-|-3---10----7---5---|
eb-|-1----8----5---3---|
4th time
eb-|---------------|
bb-|---------------|
gb-|-----(9)-------|
db-|-3---10----7---| X1
ab-|-3---10----7---|
eb-|-1----8----5---|
5th time
eb-|-------------------|
bb-|-------------------|
gb-|-----(9)-----------|
db-|-3---10----7---5---| X1
ab-|-3---10----7---5---|
eb-|-1----8----5---3---|
Last Guitar Part
eb-|---------------|
bb-|---------------|
gb-|-----(9)-------|
db-|-3---10----7---| X1
ab-|-3---10----7---|
eb-|-1----8----5---|
Keyboard Outro
thus is all!
:)




Ваше мнение



Капча