This song is tuned down half a step.

Intro & Verse:
Distorted, listen to song for timing

------------------------------------------|
------------------------------------------|
------------------------4-------4---------|
-----9---------9------4---4---4---4-------|
---7---7-----9---9------------------------|
-5--------7--------2--------0-------------|

Pre Chorus (Bridge)
-----------------|
-----------------|
-----------------|
--7--9--4--------|
--7--9--4--2-----|
--5--7--2--0-----|
A5 B5 F#5 E5

Chorus:
-----------------|
-----------------|
7----------------|
7--7--4----------|
5--7--4--2-------|
---5--2--0-------|

Interlude:
---------------------------|
---------------------------|
---------------------------|
7--9--4-----4-----9--------|
7--9--4--2--2--2--9--------|
5--7--2--0--2--0--7--------|




Ваше мнение



Капча