Our Lady Peace - Dirty Walls
Tabbed by: Jason (OLPKID)
Presented by: www.ourladypeace.cc
tunning: Eb Ab Db Gb Bb Eb
h = hammer on
p = pull off
~ = wiggle and bend
/ = slide down
= slide up
listen to the cd and get the timing and order for the song and the begining
muting (x) fret 1 with bar chord
Intro - timing on top of tab last time
1 2341 2 3412 34 12 34 12 3412 3
Eb|--x- xxxx- x--xxxx--xx-------------xx-xx-xx-xxxx-x
Bb|--x- xxxx- x--xxxx--xx-------------xx-xx-xx-xxxx-x
Gb|--x- xxxx- x--xxxx--xx----(x3)-----xx-xx-xx-xxxx-x (x1)
Db|--x- xxxx- x--xxxx--xx-------------xx-xx-xx-xxxx-x
Ab|--x- xxxx- x--xxxx--xx-------------xx-xx-xx-xxxx-x
Eb|--x- xxxx- x--xxxx--xx-------------xx-xx-xx-xxxx-x
im not doin the timing now ....just listen to the cd :-)
pre verse
3 times 4th time
Eb|---------------------|---------------|--------------------------------|
Bb|---------------------|-----------0-0-|--------------------------------|
Gb|-------7--xxx--------|-----7-xxx-2-2-|-----7-xxx---------7-xxx--------|
Db|--2-2--7--xxx-5--(x3)|-2-2-7-xxx-2-2-|-2-2-7-xxx-5---2-2-7-xxx-3-3----|
Ab|--2-2--5--xxx-5------|-2-2-5-xxx-0-0-|-2-2-5-xxx-5---2-2-5-xxx-3-3----|
Eb|--0-0-----xxx-3------|-0-0---xxx-----|-0-0---xxx-3---0-0---xxx-1-1----|
cont.
Eb|-----------------------------------|
Bb|-----------------------------------|
Gb|-----7-xxx-----x-7-x-7-x-7-x-7-x-7-|
Db|-2-2-7-xxx-5-5-x-7-x-7-x-7-x-7-x-7-|
Ab|-2-2-5-xxx-5-5-x-5-x-5-x-5-x-5-x-5-|
Eb|-0-0---xxx-3-3-x---x---x---x---x---|
strum string by string and let it ring
Eb|---0------0-------------------------------|
Bb|---0------0-------------------------------|
Gb|---9------2---------7-xxx---------7-xxx---|
Db|---9------2-----2-2-7-xxx-5---2-2-7-xxx-5-| X2
Ab|---7---0--0-----2-2-5-xxx-5---2-2-5-xxx-5-|
Eb|-0--------------0-0---xxx-3---0-0---xxx-3-|
pre chorus
Eb|-3-0----------------------------3-0--(12h15-15--(x5))--|
Bb|-3-0----------------------------3-0--------------------|
Gb|-0-2------7-xxx--------7-xxx----0-2--------------------|
Db|-0-2--2-2-7-xxx-5--2-2-7-xxx-5--0-2--------------------|
Ab|-0-0--2-2-5-xxx-5--2-2-5-xxx-5--0-0--------------------|
Eb|-3----0-0---xxx-3--0-0-------3--3----------------------|
chorus
Eb|--------------------------------------------------------|
Bb|--------------------------------------------------------|
Gb|-----------12p9-12-12~~~---------14-14-14-12------------|
Db|-0-h-2--xx----------------0-h-2--------------3----------| (x2)
Ab|-0-h-2--xx----------------0-h-2--------------3----------|
Eb|-0-h-0--xx----------------0-h-0--------------1----------|
Eb|--------------------|------------------------|
Bb|--------------------|------------------------|
Gb|-----7-xxx----------|----x-7-x-7-x-7-x-7-x-7-|
Db|-2-2-7-xxx-5-5--(x3)|----x-7-x-7-x-7-x-7-x-7-|
Ab|-2-2-5-xxx-5-5------|----x-5-x-5-x-5-x-5-x-5-|
Eb|-0-0---xxx-3-3------|----x---x---x---x---x---|
Eb|---0------0-------------------------------|
Bb|---0------0-------------------------------|
Gb|---9------2---------7-xxx---------7-xxx---|
Db|---9------2-----2-2-7-xxx-5---2-2-7-xxx-5-| X2
Ab|---7---0--0-----2-2-5-xxx-5---2-2-5-xxx-5-|
Eb|-0--------------0-0---xxx-3---0-0---xxx-3-|
Eb|-3-0----------------------------3-0--(12h15-15--(x5))--|
Bb|-3-0----------------------------3-0--------------------|
Gb|-0-2------7-xxx--------7-xxx----0-2--------------------|
Db|-0-2--2-2-7-xxx-5--2-2-7-xxx-5--0-2--------------------|
Ab|-0-0--2-2-5-xxx-5--2-2-5-xxx-5--0-0--------------------|
Eb|-3----0-0---xxx-3--0-0-------3--3----------------------|
Eb|--------------------------------------------------------|
Bb|--------------------------------------------------------|
Gb|-----------12p9-12-12~~~---------14-14-14-12------------|
Db|-0-h-2--xx----------------0-h-2--------------3----------| (x4)
Ab|-0-h-2--xx----------------0-h-2--------------3----------|
Eb|-0-h-0--xx----------------0-h-0--------------1----------|
solo
Eb|----------------------------------------------------------------------|
Bb|-14-14-14-12-14-14-14-12-14-14-12-14-14-14-12-14-14-14-12-14-14-12----|
Gb|-14-14-14-12-14-14-14-12-14-14-12-14-14-14-12-14-14-14-12-14-14-12----|
Db|----------------------------------------------------------------------|
Ab|----------------------------------------------------------------------|
Eb|----------------------------------------------------------------------|
solo cont.
Eb|-10~~~~~~-10------------------|
Bb|-10~~~~~~---10---8-8-8-----8--|
Gb|---------------9--9-9--7-9----| then the above one more time
Db|------------------------------|
Ab|------------------------------|
Eb|------------------------------|
Eb|--0--3--0--3--2-|
Bb|--0--3--0--3--3-|
Gb|--9--0--9--0--2-|
Db|--9--0--9--0--0-|
Ab|--7--0--7--0----|
Eb|--0--3--0--3----|
Eb|--------------------------------------------------------|
Bb|--------------------------------------------------------|
Gb|-----------12p9-12-12~~~---------14-14-14-12------------|
Db|-0-h-2--xx----------------0-h-2--------------3----------| (x4)
Ab|-0-h-2--xx----------------0-h-2--------------3----------|
Eb|-0-h-0--xx----------------0-h-0--------------1----------|
outro
triplets
Eb|-12-12-12-12-12-12-12--121212--12-12-12-12-/-0------------------|
Bb|-12-12-12-12-12-12-12--121212--12-12-12-12-/-0------------------|
Gb|----------------------------------------------------------------|
Db|----------------------------------------------------------------|
Ab|----------------------------------------------------------------|
Eb|----------------------------------------------------------------|
outro cont.
Eb|---12-12-/-0---11-12-12-1212--6p5p3p0h3-0h3-0h3h5-3h5p3-33-33-33-3--5/0--|
Bb|---12-12-/-0---12-12-12-1212---------------------------5--5--5--5-5-5/0--|
Gb|--------------------------------------------------------------------------|
Db|--------------------------------------------------------------------------|
Ab|--------------------------------------------------------------------------|
Eb|--------------------------------------------------------------------------|




Ваше мнение



Капча