CAR CRASH - Our Lady Peace
1/2 step down and dropped D --> Db Ab Db Gb Bb Eb
Fig.1 (bass)
|------------------------------------------|
|------------------------------------------|
|------------------------------------------|
|-0-0-0-0-0-5/-10-10-10-9-9-9\-3-3-3-2-2-2-|
Tired and jaded this road is unsafe
|--------------------------------------------------|
|--------------------------------------------------|
|------------9-----10------------------------------|
|---------10-------------12\-6---------------7-----|
|------12------------------------------------------|
|--------------------------------------------------|
have you been there have you been there
|--------------------------------------------------|
|--------------------------------------------------|
|-------------------7------------------------------|
|---------7-------------------6--------------------|
|--------------------------------------------------|
|--------------------------------------------------|
but time is on your side you're too stubbon to wait
|-------------------------------------------------------------|
|-------------------------------------------------------------|
|----7-----9------10---------7------------------------------9-|
|----7----10------10---------6----------------------7------10-|
|----5----12------12---------8-----------------------------12-|
|-------------------------------------------------------------|
are you listening are you listening
|----------------------------------------------|
|----------------------------------------------|
|-----------------7----------------------------|
|--------7-----------------6-------------------|
|----------------------------------------------|
|----------------------------------------------|
they want you to know they want you to stay
|----------------------------------------------------|
|----------------------------------------------------|
|----------------------12---14------10-----------9---|
|-----14---------------10---12------10----------12---|
|----------------------10---12------12----------11---|
|----------------------------------------------------|
oh it's too much to take so you're running running away
|----------------------------------------------------------|
|----------------------------------------------------------|
|--------14-----------12--12\---------7--------------------|
|--------14-----------10--12\---------7-------6------------|
|--------12-----------10--10\------------------------------|
|----------------------------------------------------------|
Fig.2
|----------------------------------------------------------
|----------------------------------------------------------
|----------------------------------------------------------
|-x-x--x-x--5--5-5-5-5--5--5-5-5-5--7--7-7-7-7--7--7-7-7-7-
|-x-x--x-x--5--5-5-5-5--5--5-5-5-5--7--7-7-7-7--7--7-7-7-7-
|-x-x--x-x--5--5-5-5-5--5--5-5-5-5--7--7-7-7-7--7--7-7-7-7-
---------------------------------------------|
---------------------------------------------|
---------------------------------------------|
-5--5-5-5-5--5--5-5-5-5--5--5-5-5-5--7--7--7-|
-5--5-5-5-5--5--5-5-5-5--5--5-5-5-5--7--7--7-|
-5--5-5-5-5--5--5-5-5-5--5--5-5-5-5--7--7--7-|
Fig.3 (bass)
It's more than I can bear
|----------------------------------------------------------------------------|
|----------------------------------------------------------------------------|
|----------------------------------------------------------------------------|
|-0--0-0-0--0--0--0--7--7-7-7--7--7--7--8--8-8-8--8--8--8--5--5-5-5--5--5--5-|
Fig.4 Fig.5
|-----------------------------------------------------|------|
|-----------------------------------------------------|------|
|-4--4-4-4-4--12--12-12-12-12--9--9-9-9-9--9--9-9-9-9-|------|
|-2--2-2-2-2--10--10-10-10-10--7--7-7-7-7--7--7-7-7-7-|------|
|-2--2-2-2-2--10--10-10-10-10--7--7-7-7-7--7--7-7-7-7-|--0---|
|-2--2-2-2-2--10--10-10-10-10--7--7-7-7-7--7--7-7-7-7-|--0---|
car crash ending your day at the side of the road
|---------------------------------------------------|
|---------------------------------------------------|
|-7----------------7---------------7-----------7----|
|-7----------------7---------------8-----------7----|
|-5----------------8---------------------------5----|
|---------------------------------------------------|
are you trembling are you trembling
|----------------------------------------------|
|----------------------------------------------|
|-------9----------10-----------------9--------|
|----12-----12-----10----------------12--------|
|-12---------------12----------------11--------|
|----------------------------------------------|
they'll wake up today to the papers that say
|------------------------------------------------------------------|
|------------------------------------------------------------------|
|---------14------------12--14--------10--9-10-------9-------9-----|
|---------14------------10--12--------10-------10---12----12----12-|
|---------15------------10--12--------12------------11-11----------|
|------------------------------------------------------------------|
oh well it was too hard to tell
|----------------------------------------|
|----------------------------------------|
|----------------14---------------12--14-|
|----------------14---------------10--12-|
|----------------15---------------10--12-|
|----------------------------------------|
he was swerving they were swerving much too late
|--------------------------------------------------|
|--------------------------------------------------|
|--------14-------14-------16-------16-------------|
|-----------15-------15-------17-------17----------|
|--------------------------------------------------|
|--------------------------------------------------|
Fig.2
Fig.3
Fig.6
It's more it's more
|-------------------------------------|
|-------------------------------------|
|-10-10-10-10-10-10--7--7--7--7--7--7-|
|--8--8--8--8--8--8--5--5--5--5--5--5-|
|--8--8--8--8--8--8--5--5--5--5--5--5-|
|--8--8--8--8--8--8--5--5--5--5--5--5-|
Fig.4

Fig.7
|------bend the notes on the G string up a whole step--------|
|----------------------------------------------------------------|
|-15--10---8--10--13--15--13--10---8--10---8--10--13--15--13--10-|
|-17--12--10--12--15--17--15--12--10--12--10--12--15--17--15--12-|
|----------------------------------------------------------------|
|----------------------------------------------------------------|
|----------------------------------------------------------------|




Ваше мнение



Капча