Bring Back the Sun
By: Our Lady Peace
Album: Gravity
Tuning: Down Half Step
Tabbed By: David White ([email protected])
Presented by: www.ourladypeace.cc

Intro and Verses (Follow the song for Rpt #)
Guitar
e|-----------------2--2--0------
B|-----------------2--2--0------
G|-----------------2--2--1------
D|-------0h4-------4--4--2------
A|-0h4-------------4--4--2------
E|---------------2-2--2--0------

Chorus (Again follow song for Rpt #)
Guitar
e|-0--0--0--0-----
B|-0--0--0--0----
G|-6--6--2--1----
D|-7--7--4--2----
A|-7--7--4--2----
E|-5--4--2--0----

*** ALSO: There's picking up and down on each of these chords as the chorus progresses....
just follow along and you'll get it!***

Riff
e|-----------------------------------------------------------------------------------------------------------------
B|------------------------------------7----7----7-9s7-5-5-5s3-3s2-2h3-3-2------------------------------------------
G|-1-s-6-6-6-6h7-7r6-6s4-4----4----4----------------------------------------4-2-2--2-2s1-1-1h2-2-2-2-1-1-----------
D|----------------------------------------------------------------------------------------------------------2s4s2--
A|-----------------------------------------------------------------------------------------------------------------
E|-----------------------------------------------------------------------------------------------------------------

e|-----5------5-------5-5-5b7-5-4-4-5-4-4--------------------------------------------------------------------------
B|-------------------------------------------------5b7-5b7-5b7-5b7-------------------------------------------------
G|-6----6-6---6-6-------------------------------------------------------6-6-6h7-7-6-4-4-2-2-2s1-1-1-1-2-2-1--------
D|---------------------------------------------------------------------------------------------------------2s4s2---
A|-----------------------------------------------------------------------------------------------------------------
E|-----------------------------------------------------------------------------------------------------------------


Interlude
(Play same as chorus)

***Follow through to the end of the song****


(Sorry for the crudeness of the riff, I didn't have a lot of time to write this up!!!
But it gets the main points across...)




Ваше мнение



Капча