The Birdman - Our Lady Peace
This song rocks. One of the better songs they've ever made. The bass tab
is quite simple, but when played along with Raine's awesome voice, or Bob
Morgano's guitar tab of the song, this sounds perfect. It might not be
exactly what's on the CD, but it's pretty damn close. Please direct all
comments (good and bad) to Bryan Shiffman at
[email protected]
[Riff 1] - Verse riff
Gb:----------------|
Db:----------------|
Ab:-------7--5--7--|
Eb:0-0-0-----------|
[Riff 2] - Get it on, get it on...
Gb:----------------|
Db:----------------|
Ab:----------------|
Eb:-3-------2---1--|
[Riff 3] - Chorus
Gb:----------------|----------------|
Db:----------------|----------------|
Ab:----------------|----------------|
Eb:-------7-6-5----|-------3-4-5----|
[Riff 4] - I feel him close
Gb:---------------------------|
Db:---------------------------|
Ab:7-7-7-5-5-5-8-8-8-10-10-10-|
Eb:---------------------------|
[Riff 5] - Solo
Gb:-----------------------------|
Db:-----------------------------|
Ab:7-7-7-7-7-7-7-7-5-5-5-5-5-5-5|
Eb:-----------------------------|




Ваше мнение



Капча