Date: Friday, April 25
From: David Harrison
Subject: TAB: "Big Dumb Rocket" by "Our Lady Peace"
Album: "Clumsy"(1997)
This is a pretty easy song and I'm pretty sure I tabbed
it right so you shouldn't have any complaints or anything
but if you do feel free to e-mail me.
P.S.-TUNE YOUR GUITAR DOWN HALF A STEP
*********************
*You can play either*
Intro: *or both of these. *
*********************
E|---------------1110-1110-1110-1110-||
B|-----------------------------------||
G|----45--5~557---8-7--8-7--8-7--8-7-||
D|-2~245--5~557----------------------||
A|-2~223--3~335----------------------||
E|-0~0-------------------------------||
Fill 1:
E|-13-|-15-||
B|-18-|-20-||
G|----|----||
D|----|----||
A|----|----||
E|----|----||
Verse 1:
E|-11~~--------|-11~~--------|-12~~--------|-12~~~-|
B|-----10b~~~r-|-----10b~~~r-|-----10b~~~r-|-------|
G|-------------|-------------|-------------|-------|
D|-------------|-------------|-------------|-------|
A|-------------|-------------|-------------|-------|
E|-------------|-------------|-------------|-------|
Chorus: End 1: End 2:
E|-----|-----|-----| E|---------| E|--6-65~|
B|-----|--6--|-----| B|-3-------| B|-8-----|
G|-----|--5--|--5--| G|-5b~~~~~-| G|-------|
D|--5--|--3--|--5--| D|---------|
A|--5--|-----|--3--|
E|--3--|-----|-----|
Verse 2:
E|-12~~~~-|-12~~------------|-------------|-12~~~-|
B|--------|-----10b~~11~~~~-|-10b~~11~~~~-|-------|
G|--------|-----------------|-------------|-------|
D|--------|-----------------|-------------|-------|
A|--------|-----------------|-------------|-------|
E|--------|-----------------|-------------|-------|
Interlude:
E|-----|-----|-----|-----|
B|-----|-----|-----|-----|
G|-----|-----|--5--|--7--|
D|--7--|--5--|--5--|--7--|
A|--7--|--5--|--3--|--5--|
E|--5--|--3--|-----|-----|
Fill 2: Fill 3:
E|-------|
B|-------| B|------|
G|--9~\--| G|-8~7~-|
D|--9~\--| D|------|
A|--7~\--|
E|-------|




Ваше мнение



Капча