Alright, this is correct, trust me people
Intro:
----------------------------------------|
-------------------4---4---4---4--------|
---------5-5-5-7-----7---7---7---7------|
-------5-5-5-5-7------------------------|
-2-2-2-5-3-3-3-5------------------------|
-0-0-0-3--------------------------------|
Bridge:
-------------------------------------------------------------------------------|
-------------------------------------------------------------------------------|
-------------------------------------------------------------------------------|
-10-10-10-10-10-10-10-10-10-10-10-10-10-10-10-10-10-10-10-10-10-10-10-10-10-10-|
-8--8--8--8--8--8--8--8--8--8--8--8--8/-7--7--7--7--7--7--7--7--7--7--7--7--7--|
-------------------------------------------------------------------------------|
Verse: NO GUITAR
Bridge
Chorus:
-----------------------------------------|
-------------3---------------------------|
---------5-5-4^---------5-5-7------------|
5-5-3-3--5-5----5-5-----5-5-7------------|
5-5-3-3--3-3----5-5-2-2-3-3-5------------|
3-3-1-1---------3-3-0-0------------------|
Interlude:
-----------------------------------------|
-4---4---4---4---4---4---4---4---4-------|
---7---7---7---7---7---7---7---7---7-----|
-----------------------------------------|
-----------------------------------------|
-----------------------------------------|
Tabbed By Brandon Archambault, any questions comments [email protected]




Ваше мнение



Капча