All My Friends
_______________
tabbed by: Jason (OLPKID) :)
OLP Tunning
Eb ab db gb bb eb
= slide down
/ = slide up
***Done In Order Of Song***
8X 2X 2X
eb-|--------0----|---------0---|--------0---|
bb-|------6---6--|------6----6-|------6---6-|
gb-|----7--------|----7--------|----7-------|
db-|--0----------|--6----------|--5---------|
ab-|-------------|-------------|------------|
eb-|-------------|-------------|------------|
4X 2X 4X
eb-|--------0----|---------0---|--------0---|
bb-|------6---6--|------6----6-|------6---6-|
gb-|----7--------|----7--------|----7-------|
db-|--0----------|--6----------|--5---------|
ab-|-------------|-------------|------------|
eb-|-------------|-------------|------------|
4X 2X 2X
eb-|--------0----|---------0---|--------0---|
bb-|------6---6--|------6----6-|------6---6-|
gb-|----7--------|----7--------|----7-------| X2
db-|--0----------|--6----------|--5---------|
ab-|-------------|-------------|------------|
eb-|-------------|-------------|------------|
^^^^^^^^^^^^^^^^^^^^^^^^^^^^^^^^^^^^
Strummed overtop ABOVE part (timing not shown)
eb-|-0--------0----0---0--0-0--|
bb-|-6------6------6---6--6-6--|
gb-|-7--5h7-----5--7---7--5h7--|
db-|-0-------------6---5--5-5--| X2
ab-|---------------------------|
eb-|---------------------------|
X16 overtop (strumming pattern not shown)
eb-|---------0---|-----0-----|
bb-|----6------6-|-----6-----|
gb-|-------------|-----7-----|
db-|-0----0------|-----0-----|
ab-|-------------|-----------|
eb-|-------------|-----------|
Chorus
X2 end on
eb-|-5--3--1--3-|--3--|
bb-|-6--3--1--3-|--3--|
gb-|-7--5--3--5-|--5--|
db-|-7--5--3--5-|--5--|
ab-|-5--3--1--3-|--3--|
eb-|------------|-----|
pre verse (strumming pattern not shown)
eb-|--0--|
bb-|--6--|
gb-|--7--|
db-|--0--|
ab-|-----|
eb-|-----|
4X 2X 2X
eb-|--------0----|---------0---|--------0---|
bb-|------6---6--|------6----6-|------6---6-|
gb-|----7--------|----7--------|----7-------| X2
db-|--0----------|--6----------|--5---------|
ab-|-------------|-------------|------------|
eb-|-------------|-------------|------------|
^^^^^^^^^^^^^^^^^^^^^^^^^^^^^^^^^^^^
Strummed overtop ABOVE part (timing not shown)
eb-|-0--------0----0---0--0-0--|
bb-|-6------6------6---6--6-6--|
gb-|-7--5h7-----5--7---7--5h7--|
db-|-0-------------6---5--5-5--| X2
ab-|---------------------------|
eb-|---------------------------|
X16 overtop (strumming pattern not shown)
eb-|---------0---|-----0-----|
bb-|----6------6-|-----6-----|
gb-|-------------|-----7-----|
db-|-0----0------|-----0-----|
ab-|-------------|-----------|
eb-|-------------|-----------|
^^^^^^^^^^^^^^^^^^^^^^^^^
overtop the ABOVE (mute the following)(rythem not shown)
eb-|--------------------------------|
bb-|--------------------------------|
gb-|--------------------------------|
db-|--7--5--5--6-----7--5--5--6-----|
ab-|--5--3--1--4--7--5--3--1--4--7--|
eb-|--------------5--------------5--|
Chorus (Heavy)
eb-|-5--------------| **Main Riff through the rest of the song**
bb-|-6--10--11--13--|
gb-|-7--9---10--12--| **X8**
db-|-7--7---8---10--|
ab-|-5--7---8---10--|
eb-|----------------|
solo through main riff etc (figure out where each part is)
X4
eb-|----------------------------|-----------12--12--12---|---------|
bb-|----------------------------|-10-11-10----10--10--10-|----14B--|
gb-|--7~~-9~~-10~~-12~~-12B(14)-|------------------------|-0~~-----|
db-|----------------------------|------------------------|---------|
ab-|----------------------------|------------------------|---------|
eb-|----------------------------|------------------------|---------|
eb-|----------12--12--12------------12-10-12-10-12-10----------13-12-13-12-13-12---
bb-|-10-11-10---10--10--10-10-11-10-------------------10-11-10---------------------
gb-|-------------------------------------------------------------------------------
db-|-------------------------------------------------------------------------------
ab-|-------------------------------------------------------------------------------
eb-|-------------------------------------------------------------------------------
solo continued
eb-|----------15--13--15-13-15-1313slide down-|
bb-|-10-11-10----------------------------------|
gb-|-------------------------------------------|
db-|-------------------------------------------|
ab-|-------------------------------------------|
eb-|-------------------------------------------|
eb-|---------------------------------------------------------------|
bb-|---------------------------10~~-13~~-15~~-17~~/slide up neck---|
gb-|-7~~-9~~-10~~-12~~-12B(14)-------------------------------------|
db-|---------------------------------------------------------------|
ab-|---------------------------------------------------------------|
eb-|---------------------------------------------------------------|
end on
eb-|--5--|
bb-|--6--|
gb-|--7--|
db-|--7--|
ab-|--5--|
eb-|-----|
thus is all!
:)




Ваше мнение



Капча