Artist: Our Lady Peace
Song: All For You
Tabbed By: Ken Will ([email protected])
Tuning: Db Ab Db Gb Bb eb
Presented by: http://ourladypeace.cc
well... i tabbed all the riffs in the song here, it's not a hard song to piece together
although a few of the riffs can be tricky. I didn't indicate any timing, sorry. Enjoy!
Intro Riff
|---------------------------------------------------|
|-----3------------------------------------------|
|-----2-------------------------------------|
|--0--0---------3--5-----9--9----5--7-----------|
|--0--0---------3--3-----7--7----5--5-----------|
|--0--0---------3--3-----7--7----5--5-----------|
verse riff
|---------------------------------------------------------------------------------------|
|---------------------------------------------------------------------------------------|
|---------4---5--------4-x-5------4----5------------------------------------------|
|----2-3----3-----3-2---------2-3---3---------------------------------------------|
|---------------------------------------------------------------------------------------|
|---------------------------------------------------------------------------------------|
bridge riff
|---------------------------------------------------------------------------------------|
|---------------------------------------------------------------------------------------|
|---------------------------------------------------------------------------------------|
|----------4-----5----------4-----5----------4------5----------------------------|
|----------2-----3----------2-----3----------2------3----------------------------|
|---2--3------3-------3--2-----3------2--3------3--------------------------------|
clean part w/ light phaser
|---------------------------------------------------------------------------------------|
|----3--------6--------------10-----------8-----------------------------------------|
|----2--------5--------------9------------7-----------------------------------------|
|----0--------3--------------7------------5-----------------------------------------|
|----0--------3--------------7------------5-----------------------------------------|
|----0--------3--------------7------------5-----------------------------------------|
lead part at the end
|---------------------------------------------------------------------------------------|
|---------------------------------------------------------------------------------------|
|--9---10------17---16-------12--------------------------------------------------|
|---------------------------------------------------------------------------------------|
|--7----8------15---14-------10--------------------------------------------------|
|---------------------------------------------------------------------------------------|
****Live in the Buffalo, NY area? If so, check out Clumsy Congress live in concert,
****the premier OLP tribute band!
===========
All For you (keyboard intro)
Tuning: Drop Ѕ step + Drop D
Tabbed by: Jeremy McCully (webmaster@)
Eb|---------------------------------------------|
Bb|---------------------------------------------|
Gb|--------17-16-16~-12~~------------17-16-16~--|
Db|-14-15----------------------14-15------------|
Ab|---------------------------------------------|
Db|---------------------------------------------|
===========Our Lady Peace
All For you
Tuning: Drop Ѕ step + Drop D
Tabbed by: Andy Picker
www.ourladypeace.cc
Intro
E|-----------------|
B|-----------------|
G|---------2-2-----|
D|-0-0-3-3-2-2-5-5-|
A|-0-0-3-3-0-0-5-5-|
D|-0-0-3-3-----5-5-|
VERSE
Guitar 1
E|--------------------------|
B|--------------------------|
G|-----3--4------3--4—--3-4-|
D|-0-0--0---0-0---0---0—-0--|
A|--------------------------|
D|--------------------------|
All 0’s are palm muted
Guitar 2 in back ground, the timing isn’t written,but is relatively easy
E|-------|
B|-------|
G|-2-2---|
D|-2-2-2-|
A|-0-0-2-|
D|-----2-|
Chorus
E|-----------------|
B|-----------------|
G|---------2-2-----|
D|-0-0-3-3-2-2-5-5-|
A|-0-0-3-3-0-0-5-5-|
D|-0-0-3-3-----5-5-|
Bridge
Guitar 1
E|-----------|
B|-----------|
G|-----3---4-|
D|-0-0---0---|
A|-----------|
D|-----------|
0’s are palm muted
Guitar 2
E|---|
B|---|
G|---|
D|-2-|
A|-2-|
D|-2-| Timing is not shown but is easy




Ваше мнение



Капча