Orgy, The Odyssey.
Tabbed by Cavan, [email protected]

tuning- EADGBE

INTRO
D|-3-3-3-3-3-3-3-3--1-1-6-6-|
A|-3-3-3-3-3-3-3-3--1-1-6-6-|
E|--------------------------|

VERSE
G|------------------0^-|
D|---------------------|
A|-0-0-0-0-0-0-0-0-----|
E|-0-0-0-0-0-0-0-0-----|

PRE-CHORUS
D|-1-0-0--0-0-0--0-0-0--0-0-0--|
A|-1-0-0--0-0-0--0-0-0--0-0-0--|
E|-1-0-0--0-0-0--0-0-0--0-0-0--|

CHORUS
D|-0-0-0-0-0-0-0-0-7-7-7-7-7-7-7-7-7-
A|-0-0-0-0-0-0-0-0-7-7-7-7-7-7-7-7-7-
E|-0-0-0-0-0-0-0-0-7-7-7-7-7-7-7-7-7-

-0-0-0-0-0-0-0-0-5-5-5-5-5-5-5-5-|
-0-0-0-0-0-0-0-0-5-5-5-5-5-5-5-5-|
-0-0-0-0-0-0-0-0-5-5-5-5-5-5-5-5-|





Ваше мнение



Капча