T1: Jonathan Yeoh Ziming, [email protected], Orgy, Stiches, not sure

S1: Well, I think the one tabbed before this wasn't done completely...
So I decided to tab the whole thing out!
Umm...Enjoy, Tuning - Db Ab Db Gb Bb Eb

Guitar Distorted / Synth - guitar 1
Guitar Heavily Distorted - guitar 2

Intro:
Bass taps

Verse 1: (guitar synth)
Eb---------10~-------10~-------
Bb-11~~--------11~~------11~~--
Gb-----------------------------

Chorus: (guitar 2)
Eb--------------
Bb--------------
Gb--4----------- x2
Db--4--5--1--0--
Ab--2--5--1--0--
Db-----5--1--0--

(guitar synth) sounds like tremolo picking
Eb--------------------------------
Bb--------------15~---------------
Gb--16~--14~-----------12~--11~~~-
Db------------12------------------
Ab--------------------------------
Db--------------------------------

Eb-----------------------------------
Bb-----------------------------------
Gb--16~--14~---------14~--12~--11~~--
Db------------12-9~------------------
Ab-----------------------------------
Db-----------------------------------

Verse 2: (guitar synth)
Eb-----------------------
Bb--8~-7~---7~-------7~--
Gb--------------9~-------

Repeat Chorus

Verse 3: (guitar synth) in between guitar 2 scratches strings
Eb--------|--10~--------10~-------
Bb--11~~--|------11~~-------11~~--
Gb--------|-----------------------

Interlude: (guitar 2)
Gb------------------
Db--11--12----7--6--
Ab---9--10----5--4--
Db------------------

Repeat Chorus

Break: (guitar 2) press and let ring
Db-------
Ab--7~~--
Db--7~~--

Repeat Chorus x 4

End with:
Db-------
Ab--7~~~-
Db--7~~~-





Ваше мнение



Капча