Social Enemies

Intro/Chorus

|-------------------| R
|-------------------|
|-------------------|
|-7--------7--------|
|-7-----6^-7-----5^-|
|-5--------5--------|

|------------------12-----------------------| L
|-14-12------14-12------14-12------14-12-10-|
|-------12--------------------12------------|
|-------------------------------------------|
|-------------------------------------------|
|-------------------------------------------|

Verse

|--------------| L
|--------------|
|--------------|
|-5----5---5-6-|
|--------------|
|--------------|





Ваше мнение



Капча