Author/Artist: Orgy
Title: Saving Faces
Album: Vapor Transmission
Transcribed by: Chunk Bunny
Email: [email protected]

Any Question, comments, or suggestions tell me!
Synth Guitar Intro/ Chorus/ Verse

-------8-9-8-----5---7------------8--9--8---5---6-----------------------------
-6-------------------------6--------------------------------------------------
------------------------------------------------------------------------------
------------------------------------------------------------------------------
------------------------------------------------------------------------------
------------------------------------------------------------------------------

Chorus
------------------------------------------------------------------------------
------------------------------------------------------------------------------
------------------------------------------------------------------------------
------------------------------------------------------------------------------
-888888888888--11-11-11-11-----66666666--55555555-----------------------------
-666666666666--9--9--9--9------44444444--33333333-----------------------------





Ваше мнение



Капча