Platinum

Chorus/verse (for rhythme,no lead in verse)

|----------------| R
|----------------|
|-7---9>>--------|
|-7---7>>--9---5-|
|-5--------9---5-|
|----------7---3-|

|----------------| L
|----------------|
|-----9>>--------|
|-7---7>>------3-|
|-5--------9---3-|
|-5--------7---3-|

Fill

|-------12-11-10-------------| L
|----------------12----------|
|-14-12-------------10h12-12-|
|----------------------------|
|----------------------------|
|----------------------------|

Interlude

|---------12^r12^----------| L (sorry, couldn't figure out
|--------------------------| rhythme)
|-10h12p10--------12-10-12-|
|--------------------------|
|--------------------------|
|--------------------------|





Ваше мнение



Капча