Gender

1st Verse

|----------------------|----------------------| L
|----------------------|----------------------|
|----------------------|----------------------|
|----------------------|----------------------|
|----------------------|----------------------|
|-8--8--8-8---8--8-8-9-|-7--7--7-7---7--7-7-9-|
2x

|----------------------|----------------------| R
|----------------------|----------------------|
|----------------------|----------------------|
|----------------------|----------------------|
|----------------------|----------------------|
|-8--8--8-8-8-8--8-8-9-|-7--7--7-7-7-7--7-7-9-|
2x

Chorus

|--------------| L R
|--------------|
|--------------|
|--------------|
|-5----7----11-|
|-2----5-----9-|

2nd Verse
(rhythme plays 1st verse, lead plays...)

|-----------------------|-----------------------| L
|-12-13-12-13-12-10--12-|-11-12-11-12-11-10--12-|
|-----------------------|-----------------------|
|-----------------------|-----------------------|
|-----------------------|-----------------------|
|-----------------------|-----------------------|
2x

|-------------------------------| L
|-15-------12-------13-------14-|
|-------------------------------|
|-------------------------------|
|-------------------------------|
|-------------------------------|

Interlude

|------------------------------|-----------------------------| R
|------------------------------|-----------------------------|
|------------------------------|-----------------------------|
|------------------------------|-----------------------------|
|------------------------------|-----------------------------|
|-3--3--3-3--12--12--12-12--12-|-3--3--3-3--14--14--14-14-12-|

(Amir does fx w/...)
|------------------| L
|-19-and-20-and-22-|
|------------------|
|------------------|
|------------------|
|------------------|





Ваше мнение



Капча