Fiend

Intro

|--------------------| L
|-12^---12^---12^----|
|-----------------12-|
|--------------------|
|--------------------|
|--------------------|

Bridge

|---------------|-----------------| R
|---------------|-----------------|
|---------------|-----------------|
|---------------|-----------------|
|---------------|-8-8-8-8-7-7-7-7-|
|-8-8--8-8-7-7-|-----------------|
3x

|---------------|-----------------| L
|---------------|-----------------|
|---------------|-----------------|
|----10^--------|-----------------|
|---------------|---8---8---7---7-|
|---------------|-----------------|
3x

Verse, same as rhythme's bridge.

Chorus

|---------------------| R
|---------------------|
|---------------------|
|-7---7---10---5------|
|-5---7---10---5--4---|
|-----5----8---3--2---|

|----------------------| L
|---13--13--13---------|
|---------------14--14-|
|----------------------|
|----------------------|
|----------------------|

Interlude

|------------| L
|----8-----7-|
|-9-----8----|
|------------|
|------------|
|------------|

|------------| R
|----13---12-|
|------------|
|------------|
|-11----9----|
|--9----7----|





Ваше мнение



Капча