Band: Orgy
Song: Fiction (Dreams In Digital)
Album: Vapor Transmission
Tuning: Low to High -- Bb Eb Ab Db
Intro and Verse:
Db|--------------------------------------------------------------
Ab|--------------------------------------------------------------
Eb|--2--2-2-2-2-2-2----------------2--2-2-2-2-2-2-0-0-0-0-0-0-0-0
Bb|-----------------3--3-3-3-3-3-3-------------------------------
Db|--------------------------------------------------------------
Ab|--------------------------------------------------------------
Eb|--2--2-2-2-2-2-2----------------4--4-4-4-4-4-4-3-3-3-3-3-3-3-3
Bb|-----------------3--3-3-3-3-3-3-------------------------------
Pre-Chorus:
Db|--------------------------------
Ab|--------------------------------
Eb|--2-2-2-2--2--2-2--2-2-2-2-2----
Bb|-----------------------------32
Chorus:
Db|-------------------------------------------------------------
Ab|-------------------------------------------------------------
Eb|-------------5-5--7-------7-7-------------5-5-5-7-7-7-----*7-7*
Bb|-7-7-7-3-3-3----------5-5-----7-7-7-3-3-3-------------5-5----
**On the 2nd time, replace those w/ 5 on Bb
Db|---------------------------
Ab|-----------------54-------
Eb|---------------------5--74
Bb|-7------7-7--7-------------
You'll do this in the chorus sometimes:
Db|-----------------------------------------------------------
Ab|---------------------------------9-9-9---------------------
Eb|-------------5-5-5-7-7-7-----7-7-------10---5--7--7-----7-7
Bb|-7-7-7-3-3-3-------------5-5------------------------5-5----
Outro:
Db|------------------------
Ab|------5-----------------
Eb|---------5---7------7---
Bb|--7--------------5-----7





Ваше мнение



Капча