Orgy, Eva.
Tabbed by Cavan, [email protected]

Tuning- Eb-Ab-Db-Gb-Bb-Eb

Intro
Eb|------8---------8---------10---------10----|
Bb|-8-10---10-8-10---10-8-10----10-8-10----10-|
Gb|-------------------------------------------|

Intro-Ending
Gb|-2----0-------|
Db|------5--0----|
Ab|---------5----|

Verse
Gb|-0----0--------------|
Db|-----------0----0----|

Chorus
Db|-----------------3-3-3-3-1-1-1-1-|
Ab|-0-0-0-0-3-3-3-3-3-3-3-3-1-1-1-1-|
Eb|-5-5-5-5-3-3-3-3-----------------|

Interlude
Bb|-------------------------------------------------
Gb|-4-4-4-4-4-4-4-4-4-4-4-4-4-4-4-4-0-0-0-0-0-0-0-0-
Db|-4-4-4-4-4-4-4-4-4-4-4-4-4-4-4-4-0-0-0-0-0-0-0-0-

-----------------------------------------------
-0-0-0-0-0-0-0-0-2-2-2-2-2-2-2-2-2-2-2-2-2-2-2-
-0-0-0-0-0-0-0-0-2-2-2-2-2-2-2-2-2-2-2-2-2-2-2-

---------------------------------|
-0-0-0-0-0-0-0-0-0-0-0-0-0-0-0-0-|
-0-0-0-0-0-0-0-0-0-0-0-0-0-0-0-0-|





Ваше мнение



Капча