Song:Blue Monday
Band: Orgy
Album: Candyass
Transcribed By: Matthew Resnick

Tuning: Drop D tuning transposed down one half step
(low to high: Db, Ab, Db, Gb, Bb, Eb)
Tempo:130

pm- Palm Mute
/- Slide up
- Slide down
()- Ghost note

Intro:
Gtr. 1(w/ dist., chorus & reverb)
Eb|----------------------------------------------------------------|
Bb|----------------------------------------------------------------|
Gb|----------------------------------------------------------------|
Db|-5---5---5---7--------------------------------------------------|
Ab|(0)-(0)-(0)------5---5---5---7---7---7---7---7---7---7---7---7--|
Db|----------------------------------------------------------------|
pm-| pm-| pm-|

Gtr. 2(w/ dist., chorus & delay)
Eb|----------------------------------------------------------------|
Bb|--12-------------------------------12-----------------------12--|
Gb|-------11-----------12-------------------11----------9----------|
Db|----------------------------------------------------------------|
Ab|----------------------------------------------------------------|
Db|----------------------------------------------------------------|

Gtr. 1 & 2(w/ heavy distortion & octave divider)
Eb|-------------------------------------------------
Bb|-------------------------------------------------
Gb|-------------------------------------------------
Db|-------------------------------------------------cont. to next line
Ab|-------------------------------------------------
Db|--5--5--5--5--0--0--0--0--2--2--2--2--2--2--2--2-

Eb---------------------------------------------------|
Bb---------------------------------------------------|
Gb---------------------------------------------------|
Db---------------------------------------------------|
Ab---------------------------------------------------|
Db-/-7--7--7--7--0--0--0--0--2--2--2--2--2--2--2--2-|

Gtr. 1(w/ heavy distortion & octave divider)
Eb-----------------------------------------------------|
Bb-----------------------------------------------------|
Gb-----------------------------------------------------|
Db-----------------------------------------------------|
Ab-----------------------------------------------------|
Db-2-2-2-2-2--2--2-2-2-2-2--2-2-2-2-2--2-2-2-2-2--2--2-|
pm---------------------------------------------------|

Verses
Gtr. 1(w/ dist., chorus & delay)
Eb|----------------------------------------------------------------
Bb|----------------------------------------------------------------
Gb|----------------------------------------------------------------
Db|-5---5---5---7--------------------------------------------------
Ab|-----------------5---5---5---7---7---7---7---7---7---7---7---7--
Db|----------------------------------------------------------------
pm-| pm-| pm-|

Eb----------------------------------------------------------------|
Bb----------------------------------------------------------------|
Gb----------------------------------------------------------------|
Db-5---5---5---7--------------------------------------------------|
Ab-----------------5---5---5---7---7---7---7---7---7---7---7---7--|
Db----------------------------------------------------------------|
pm-| pm-| pm-|

Chorus
Gtr. 1 & 2(w/ heavy distortion & octave divider)
Eb|-------------------------------------------------
Bb|-------------------------------------------------
Gb|-------------------------------------------------
Db|-------------------------------------------------cont. to next line
Ab|-------------------------------------------------
Db|--5--5--5--5--0--0--0--0--2--2--2--2--2--2--2--2-

Eb---------------------------------------------------|
Bb---------------------------------------------------|
Gb---------------------------------------------------|
Db---------------------------------------------------|
Ab---------------------------------------------------|
Db-/-7--7--7--7--0--0--0--0--2--2--2--2--2--2--2--2-|

1st Interlude
Gtr. 2(w/dist., chorus & delay)
Eb|--------------------------------------------------------19-|
Bb|-20---19---17---19-----------------------20---19---17------|
Gb|------------------------16---------------------------------|
Db|-----------------------------------------------------------|
Ab|-----------------------------------------------------------|
Db|-----------------------------------------------------------|

2nd Interlude
Play Intro twice
And then this
Gtr. 1(w/ dist. and chorus)
Gtr. 2(w/ heavy dist. and octave divider)
Eb|-------------------------------------------------------------------------------------|
Bb|-------------------------------------------------------------------------------------|
Gb|--------------------------------------4------------------------------4---------------|
Db|--------------------------------------------5-----(5)----------------------5---------|
Ab|-7------5-----------------5----7--------------------------5-----7------------------7-|
Db|---------------7---------------------------------------------------------------------|

Outro Chorus
Gtr. 1(w/ dist. and chorus)
Gtr. 2(w/ heavy dist. and octave divider)
Eb|------------------------------------------------------------------19-|
Bb|-20---19---17---19------19-----------------20---19---17--------------|
Gb|--------------------------------16--------------------------------14-|
Db|-16---------------------17-----------------16------------------------|
Ab|---------------------------------------------------------------------|
Db|---------------------------------------------------------------------|





Ваше мнение



Капча