All The Same

Verse
(Amir Does fx w/...)
|---------------| L
|-11-^-and 12-^-|
|---------------|
|---------------|
|---------------|
|---------------|
|---------------|

|-----------| R
|-----------|
|-----------|
|-----------|
|-----------|
|-4---5---4-|
|-2---3---2-|

Bridge

|---|---| R
|---|---|
|---|---|
|-4-|-5-|
|-4-|-5-|
|-2-|-3-|
16x 16x

Chorus

|----------| R
|----------|
|----------|
|----------|
|-5---3--7-|
|-3---1--5-|

|----------| L
|-12^---^--|
|----------|
|----------|
|----------|
|----------|





Ваше мнение



Капча