Artist- Onesidezero
Song- The day we lied
Tabber- Iconoclast
Intro- Guitar 1
e|------------------------------------------|
b|------------------------------------------|
g|------------------------------------------|
d|-------------------7-9h10-10-9h10p9-7-9---|
a|-9-9-9h10p9-7-9-10---------------------10-|
D|-0-0--------------------------------------|
At end end the intro do this...
e|----------------------------------------------|
b|----------------------------------------------|
g|----------------------------------------------|
d|------------------------4h5p4-----------------|
a|-9-9-9h10p9-7-9-7-5-4-5-------7-5-4-5-5-5-5-5-|
D|-0-0------------------------------------------|
Intro- Guitar 2
You basically just strum an open D power chord.
Verse
e|------------------------------|
b|------------------------------|
g|------------------------------|
d|-2-2-*5-*5-*5-*5--------------|
a|-2-2-------------*5-*5-*5-*5--|
D|-2-2--------------------------|
After a while of playing that play this (you'll know the timing when u hear it)
e|------------------------------|
b|------------------------------|
g|---------------------11/7-7-7-|
d|-2-2-x-x-x-x-x-x-x-x--x-x-x-x-|
a|-2-2-x-x-x-x-x-x-x-x--9/5-5-5-|
D|-2-2-x-x-x-x-x-x-x-x----------|
Chorus
e|--------------------------------------------------------|
b|--------------------------------------------------------|
g|--------------------------------------------------------|
d|-10-10-10-10-10-10/9-9-9-9-9-9/7-7-7-7-7-7h9p7----------|
a|-----------------------------------------------10-9-7-9-|
D|--------------------------------------------------------|
Bridge(no strumming shown) | At the end of bridge play this
e|--------------------|---------|
b|--------------------|---------|
g|-7-9-10-9-12--------|-8-------|
d|-x-x-x--x-x---------|-8(10x)--|
a|-5-7-8--7-10--------|-6-------|
D|--------------------|---------|
Outro (different strumming patterns are used but thats about it)
e|--------------------|
b|--------------------|
g|--------------------|
d|-2-2-2-3-2-2-2-3----|
a|-2-2-2-3-2-2-2-3----|
D|-2-2-2-3-2-2-2-3----|




Ваше мнение



Капча