Onesidezero
Instead Laugh
Saw OneSideZero play this live in San Antonio Remebered as much as I could.
Nost of the solo was done by ear after watching Levons position on the fretboard.
If anyone has any other OnesideZero Tabs Email them to me at [email protected]
(drop D Tuning)
Repeat this 2x (Clean-Slightly Muted)
E---------------------------------------------------------
B---------------------------------------------------------
G---------------------------------------------------------
D--0--------0--------0--------0---------------------------
A--1-1-1-1--1-1-1-1--1-1-1-1--1-1-1-1---------------------
D---------------------------------------------------------

Guitar 2 Plays this over Guitar 1 above(Distortion)
E---------------------------------------------------------
B---------------------------------------------------------
G---------------------------------------------------------
D---0-xx-3-xx-3-xxxx-2-xx-0-xx-3-xx-3-xxxx-2-xx-0---------
A---------------------------------------------------------
D---------------------------------------------------------
Guitar 1 Under Guitar 2 Below(Clean-Slightly Muted)
E----------------------------------------
B----------------------------------------
G----------------------------------------
D-0--------0---------0--------0----------
A-5-5-5-5--5-5-5-5---7-7-7-7--8-8-8-8----
D----------------------------------------
Guitar 1 Under Guitar 2 below(Clean-Slightly Muted)
E---------------------------------------
B---------------------------------------
G---------------------------------------
D--0--------0---------0--------0--------
A--3-3-3-3--3-3-3-3---7-7-7-7--8-8-8-8--
D---------------------------------------
Guitar 2 plays this over Guitar 1
E-----------------------------------------------------
B-----------------------------------------------------
G-----------------5---2h3-----------------------------
D--xx-3-xx-3-xxxx---x-------0-xx-3-xx-3-xxxx----------
A--------------------------------------------5-x-3h5--
D-----------------------------------------------------
Riff 2(distortion- Both Guitars)
E------------------------------------------------------------
B------------------------------------------------------------
G--7-xx-7/9-9-9-9/-10--x--x-10/-12-12/14---------------------
D--x-xx-x-x-x-x-x---x--x--x--x--x---x--x---------------------
A--5-xx-5/7-7-7-7/--8--x--x--8/-10-10/12---------------------
D------------------------------------------------------------
Riff 3
E---------------------------------------------------------------------
B---------------------------------------------------------------------
G------------------------------7-xx-7/9-999-10--x--x-10/-12-12/14-----
D--0--10--10----6-6-6/7-7-7----x-xx-x-x-xxx--x--x--x--x--x--x--x------
A--0--10--10----6-6-6/7-7-7----5-xx-5/7-777/-8--x--x--8/-10-10/12-----
D--0--10--10----6-6-6/7-7-7-------------------------------------------
Solo
E---------------------------------------------------------------------
B---------------------------------------------------------------------
G---------------------------------------------------------------------
D--8-8-8-8h10h12-7-7--7-7h8p7--5h7p5-3h5p3----------------------------
A------------------------------------------7--8--7h8p7----------------
D-------------------------------------------------------10--8h10--7---
E----------------------------------------------------------------------------
B----------------------------------------------------------------------------
G----------------------------------------------------------------------------
D-----------------------------15--14-14--12-12--12/17--15-15--14-14-12p11h12-
A--------7-8-7-8-------------------------------------------------------------
D-8--10------------10-8-10-8-------------------------------------------------
E---------------------------------------------
B---------------------------------------------
G---------------------------------------------
D--15--14-14--12-12-11h12p11--12-14----------
A---------------------------------------------
D---------------------------------------------




Ваше мнение



Капча