Holding Cell- OneSideZero
This was tabbed after seeing OSZ play this live. I cant say this
is close but it sounds exact. If anyone has OnesideZero tabs please
email them to me at [email protected]

1st gtr-
E-----10-------------10-------------10---------------------------
B----------11-10----------11-10----------11-10-----11---11-10----
G-7-7----7------------------------------------------------------- x6
D----------------8-8----8-------7-7----7-------------------------
A----------------------------------------------8-8----8----------
D----------------------------------------------------------------

2nd Guitar under the first

E---------------------------------------------------------------------
B---------------------------------------------------------------------
G-7-7--7--7-----7-------7------------7-7--7--7-----7-------7----------
D-----------8-8---8-7-7---7-----8-7------------8-8---8-7-7---7-----8-7
A---------------------------8-8--------------------------------8-8----
D---------------------------------------------------------------------


played after intro
E--------------------------------------------------------
B--------------------------------------------------------
G--------------------------------------------------------
D-----7-7-7-7-7-8----------------7-----------------------
A---8-------------10-10-10-10-10---8-8-8-8-8-7-7-7-5-5-5-
D-0------------------------------------------------------

This is the chorus
E--------------------------------------------------------------------
B--------------------------------------------------------------------
G-------------------------------------------------------------------- x4
D-00-0-0-33-3-3-22-2-2-11-1-1----------------------------------------
A-00-0-0-33-3-3-22-2-2-11-1-1----------------------------------------
D-00-0-0-33-3-3-22-2-2-11-1-1----------------------------------------

Guitar 2 plays this while Brett plays Jasans part in the opening under this

E--------------------------------------------------------------------
B--------------------------------------------------------------------
G--------------------------------------------------------------------
D--------------------------------------------------------------------
A---7-10-10--10-10-10-12-8-8--8-8-8-10-7-7--777-555-333-222----------
D-0------------------------------------------------------------------


After second Chorus
E------12---------------12---------------12--------------------------
B-----------13-12-------------13-12-----------13-12-------13----13-12
G--9-9----9---------------------------------------------------------- x4
D-----------------10-10----10-------9-9-----9------------------------
A---------------------------------------------------10-10----10------
D--------------------------------------------------------------------



Bridge (played along with the 1st and 2nd verse parts)
E-------------------------------------
B-------------------------------------
G-9-----------------------------------
D-x(played bunch of times)12b12-------
A-7-----------------------------------
D-------------------------------------

After the last verse, Levon plays
E|-------------------------------------
B|-------------------------------------
G|-14b-14-14b-12----14b-14b-12-9-9-9-9-
D|--x------x---x-----x---x---x-x-x-x-x-
A|-12b-12-12b-10----12b-12b-10-7-7-7-7-
D|-------------------------------------

Right before Outro
e|-----------------------------------
B|-----------------------------------
G|----------------------------------- x4
D|--33-3-3-66-6-6-55-5-5-44-4-4------
A|--33-3-3-66-6-6-55-5-5-44-4-4------
D|--33-3-3-66-6-6-55-5-5-44-4-4------




Ваше мнение



Капча