Eight OneSideZero
Tabbed By- Jtthibert
(drop D Tuning)
This is all I know but i saw them do this live in San Antonio
and it was really awesome. Some parts probably need some work
but this is the best i could do.
Email me at [email protected] if you figure out any OneSideZero Tabs.
Nh Nh
E---------------------------------------------------------
B---------------------------------------------------------
G---------------------------------------------------------
D---------------------------------(5)--(5)----------------
A--------7---7----------------4-4-------------------------
D--4-4-4---4----6-6-6-7-7-7-------------------------------
(clean pm)Guitar 1
E---------------------------------------------------------
B---------------------------------------------------------
G---------------------------------------------------------
D-7-7-7-7-7-7---7-7-7--4-4-4------------------------------
A-4-4-4-4-4-4---5-5-5--5-5-5------------------------------
D---------------------------------------------------------

(heavy Distorted)-Guitar 1
E-----------------------------------------------------
B-----------------------------------------------------
G-----------------------------------------------------
D--------------------4-4-4--4-4-4-4-4--------4-4-7----
A-4-4-4-4-4-4-4-4-4--5-5-4--4-4-4-4-4--4-4-4-5-5-4----
D-4-4-4-4-4-4-7-7-7--------------------7-7-7----------
(heavy Distorted)-Guitar 2
E-----------------------------------------------------
B-----------------------------------------------------
G-----------------------------------------------------
D-7-7-7-7-7-7-7-7-7--4-4-4--4-4-4-4-4--4-4-4-4-4-7----
A-4-4-4-4-4-4-4-4-4--5-5-4--4-4-4-4-4--4-4-4-5-5-4----
D-----------------------------------------------------
Bridge-Guitar 1 Not Really Sure but this sounds right
E---------------------------------------------------------
B---------------------------------------------------------
G--------6----------7------------9-----------11-----------
D--------7----------9-----------11-----------12-----------
A---9--9---9s11--11---11s12--12----12s14--14--------------
D---------------------------------------------------------
Bridge-Guitar 2 fit this over guitar 1
E---------------------------------------------------------
B--------10---------12------------13------------15--------
G---------9---------11------------12------------14--------
D---------------------------------------------------------
A---9--9---9s11--11-----11s12--12----12s14--14------14----
D---------------------------------------------------------




Ваше мнение



Капча