Tabbed by : S.Wagner
Drop D tuning
tuning: D-A-D-G-B-e
Key: ()= let note ring
* = harmonic
b = bend note
INTRO - strumming not shown
_____________________
e|------------------|
B|------------------|
G|------------------|
D|-6-6-xxxx-(0)-----|
A|-6-6-xxxx-(0)-----|
D|-6-6-xxxx-(0)-----|
VERSE - strumming not shown
_____________________
e|-------------------| At the end |---------| |---------|
B|-------------------| of each verse |---------| |---------|
G|-------------------| it either goes |---------| or |---------|
D|-6-6-xxxx----5*-5*-| |-x-5-x-4-| |-x-7-x-8-|
A|-6-6-xxxx--5*------| |-x-5-x-4-| |-x-7-x-8-|
D|-6-6-xxxx----------| |-x-5-x-4-| |-x-7-x-8-|
CHORUS - strumming not shown
_____________________
e|---------------|
B|---------------|
G|---------------|
D|-0-x-8-x-5-----|
A|-0-x-8-x-5-----|
D|-0-x-8-x-5-----|
[PRE SOLO]- - - SOLO Sounds good to bend notes
_______________________________________________X2____________________________X2
e|-------------|---------------------------------|----------------------------|
B|-------------|-----6-------6-6-----5-------5-5-|----------------------------|
G|---------9b--|-7-7---7-7-7--7--6-6---6-6-6--6--|----------------------------|
D|---------7b--|---------------------------------|----------------------------|
A|---------7b--|---------------------------------|-/(12*)--11--/14-14h15-12-|
D|-0-x-0-x-----|---------------------------------|----------------------------|
BRIDGE - strumming not shown
___________________________
e|----------------------------------|
B|----------------------------------|
G|--------7--9--10----------7--8--5-|
D|--------x--x--x-----------x--x--x-|
A|-0-x-0--5--7--8----0-x-0--5--6--3-|
D|-0-x-0-------------0-x-0----------|
OUTRO - strumming not shown
___________________________
e|-----------|-----|
B|-----------|-(3)-|
G|-----------|-(2)-|
D|-----------|-(0)-|
A|-0-x-0-xxx-|-(0)-|
D|-0-x-0-xxx-|-(0)-|
So thats pretty much it, there maybe a few parts that are in the song that
i didn't tab down because it wasn't worth it so if you have any questions i
can answer them at [email protected]
Tabbed by : S.Wagner




Ваше мнение



Капча