Onesidezero- A Point In Time
Tabber- Jtthibert
This Is a great song I think i figured it out almost perfect.
I tabbed all these songs after seeing them live.
This was by far the hardest song to tab because of the three guitars
they play live.If anyone figures out OneSideZero tabs please
send them to me at [email protected]
Guitar 1
E------------------------------------------------------------------------
B------------------------------------------------------------------------
G------------------------------------------------------------------------
D------------------------------------------------------------------------
A------4p0-----4p0------4p0------4p0------4p0-------4p0------4p0-----4p0-
D-4-4------4-4------4-4------4-4------0-0------0-0------0-0------0-0-----
Guitar 2 Levon plays this over guitar 1 (let ring)
E-------------------------------------------------------------------
B---------------------------------------7-----7-----5-----5---------
G----6--6--7--9--9-11-----------7s6-------6-----6-----7-----7-------
D----x--x--x--x--x--x----7---7-------7------7-----7-----7-----7-----
A----4--4--5--7--7s-9------9----------------------------------------
D----0--0--0--0--0--0-----------------------------------------------
Guitar 3 Jasan Plays these chords over guitar 1 and 2
E-----------------------
B-----------------------
G-----------------------
D--11-------------------
A---9-(16x)---12--------
D-------------12(16x)---

Levon Plays this While Jason Sings (let ring)
E----------------------------------------------------------
B----------------------------------------------------------
G----6--6--7--9--9-11-----------7s6-----9--7--6--4--4s7----
D----x--x--x--x--x--x----7---7-------7--x--x--x--x--x-x----
A----4--4--5--7--7s-9------9------------7--5--4--2--2s5----
D----0--0--0--0--0--0-------------------0--0--0--0--0------
The Chorus is complicated... Three guitars are going but if you want to
play it to sound right combine guitar 1 and 3 or just play guitar 2
Heavy Part(Chorus)-Guitar 1
E--------------------------------------------------------------
B--------------------------------------------------------------
G------------------------------------------11-11-11-11-11-11---
D--4-4-4-4-4-4---6-6-6-6-6-6---7-7-7-7-7-7--x--x--x--x--x--x---
A--4-4-4-4-4-4---6-6-6-6-6-6---7-7-7-7-7-7--9--9--9--9--9--9---
D--4-4-4-4-4-4---6-6-6-6-6-6---7-7-7-7-7-7---------------------
(...I feel so Alive...)
Heavy Part(Chorus)-Guitar 2
E-------------------------------------------------------------
B-------------------------------------------------------------
G-------------------------------------------------------------
D--7-7-6-6-7-7---9-9-7-7-9-9--11-11--9-9-11-11----------------
A--4-4-4-4-4-4---6-6-6-6-6-6---7--7--7-7--7--7--0-0-0-0-0-0---
D--4-4-4-4-4-4---6-6-6-6-6-6---7--7--7-7--7--7--0-0-0-0-0-0---
Heavy Part(Chorus)-Guitar 3
E-----------------------------------------------------------------
B-----------------------------------------------15-15-15-15-15-15-
G------------------------------------------------x--x--x--x--x--x-
D--7-7-6-6-7-7---9-9-7-7-9-9---11-11-9-9-11-11--12-12-12-12-12-12-
A-----------------------------------------------------------------
D-----------------------------------------------------------------
Solo Time- This was complicated but i did the best i could do. Guitar 1 plays
under guitar 2.
(guitar 1 16X under all guitar 2 parts)
E --------------------------------------------------------------------
B --------------------------------------------------------------------
G --------------------------------------------------------------------
D -19---------19---------16-------------------------------------------
A -----16-17------17-16------16--17--19--17--16-----------------------
E --------------------------------------------------------------------
(guitar 2 played over guitar 1 5x)
E -------------------------------------------------------------------
B -------------------------------------------------------------------
G -------------------------------------------------------------------
D -11--12-11-9--11-9----9--------------------------------------------
A -------------------12----12--11--12--11--9s7-7s9-9-9--11-h-12-------
E -------------------------------------------------------------------
(Guitar 2 played 2x)
E -------------------------------------------------------------------
B -------------------------------------------------------------------
G -------------------------------------------------------------------
D -11-----------12------------14---------------12-x-x-11-h12---------
A -----12-12-12-----14-14-14------11-11-11---------------------------
E -------------------------------------------------------------------
(guitar 2 played 1x)
E -------------------------------------------------------------------
B -------------------------------------------------------------------
G -------------------------------------------------------------------
D -12--11-xx--14-14-xx /16------x-x-16--/19---(19p18p16)-------------
A --------------------------14---------------------------------------
E -------------------------------------------------------------------
(guitar 2 played 1x)
E -------------------------------------------------------------------
B -------------------------------------------------------------------
G -------------------------------------------------------------------
D -11-----------12--------------14------x-14^16----------------------
A ----12-12-12------14-14-14--------11-------------------------------
E -------------------------------------------------------------------




Ваше мнение



Капча