im about 99.9% possitive that this tab is right, it sounds cool ne way.
tuning: drop d.
e----------------------------------------------------------------------------
b----------------------------------------------------------------------------
g----------------------------------------------------------------------------
d----------------------------------------------------------------------------
a----12-12-12/13-13/12-12-12-------------------------------------------------
d--0-------------------------------------------------------------------------
repeat this three times and then,
e----------------------------------------------------------------------------
b----------------------------------------------------------------------------
g----------------------------------------------------------------------------
d----------------------------------------------------------------------------
a----12-12-12/13-13/12-12-12-13-15-------------------------------------------
e--0-------------------------------------------------------------------------
right, i no the description sez its the whole song, but i cant work out the chorus.
but after the seccond chorus theres that really cool riff.
e----------------------------------------------------------------------------
b----------------------------------------------------------------------------
g----------------------------------------------------------------------------
d----------------------------------------------------------------------------
a-0-13-0-12-0-10-0-8-8/10----------------------------------------------------
e----------------------------------------------------------------------------
x 3 then
e----------------------------------------------------------------------------
b----------------------------------------------------------------------------
g----------------------------------------------------------------------------
d----------------------------------------------------------------------------
a-0-10-0-8-0-13-0-12-0-8/10--------------------------------------------------
e----------------------------------------------------------------------------
Well, dats about it, if ne one wants to make changes or knows the chorus the
e mail me at [email protected] or [email protected]
fanks alot! and ROCK ON!!!




Ваше мнение



Капча