Artist-One Minute Silence
Song-Remain Calm
Album-Available In All Colours
[email protected]
Drop D H=hammer on
INTRO
G|----------------------------------------|
D|----------------------------------------|
A|----------------------------------------|
D|-0h1-1--0h1-1--0h1----0h1-1--0h1-1--0h1-|

VERSE
G|----------------------------------------|
D|----------------------------------------|
A|----------------------------------------|
D|-0-3-2-0--2--0-3--0-2-0----0-3----------|

CHORUS
G|----------------------------------------|
D|----------------------------------------|
A|---------3h5---6---6-6---6-5------------|
D|-0--0-0------0---0----------------------|

G|----------------------------------------|
D|----------------------------------------|
A|---------3h5---6---6-6---6-5------------|
D|-0--0-0------0---0----------------------|

ENDING
G|----------------------------------------|
D|----------------------------------------|
A|-----5------6---------------------------|
D|-0h7----0h7----0h6----------------------|




Ваше мнение



Капча