Artist: One Minute Silence
Song:I Wear My Skin
Tabbed by: Wayne Marsden - [email protected] - yea im on msn messenger =oD
Tuning: Drop D
Notes:
Im pretty sure this is at least 75% correct, being first tab iv ever seen/can find.
This is all my own work completely, so no thievin tbh! ^_^
Only riff im not sure off below is:-
|----------------------|
|----------------------|
|----------------------|
|-32oo-32oo-3h2------|
|-32oo-32oo-3h2------| (x3)
|-32oo-32oo-3h2------|
This is the main heavy riff, where the second strum of open is
I have a feeling it might be 1 instead of open, aka:-
|----------------------|
|----------------------|
|----------------------|
|-32o1-32o1-3h2------|
|-32o1-32o1-3h2------| (x3)
|-32o1-32o1-3h2------|
Intro:
|-----------------------------| |-----------------------------|
|-----------------------------| |-----------------------------|
|-----------------------------| |-----------------------------|
|-----------------------------| Or |-7777-777777-888855-5555----|
|-----------------------------| |-7777-777777-888855-5555----|
|-7777-777777-888855-5555----| |-7777-777777-888855-5555----|
^^ Bend All Way Through ^^
Chorus:
|----------------------|
|----------------------|
|----------------------|
|-32oo-32oo-3h2------|
|-32oo-32oo-3h2------| (x3)
|-32oo-32oo-3h2------|
|--------------------|
|--------------------|
|--------------------|
|-32oo-7-777h6------|
|-32oo-7-777h6------| (x1)
|-32oo-7-777h6------|
|----------------------|
|----------------------|
|----------------------|
|-32oo-32oo-3h2------|
|-32oo-32oo-3h2------| (x3)
|-32oo-32oo-3h2------|
|--------------------|
|--------------------|
|--------------------|
|-32oo-7-777h6------|
|-32oo-7-777h6------| (x1)
|-32oo-7-777h6------|
Interlude:
|--------------------------|
|--------------------------| From 1:02 To 1:30
|-777-777-7/8-888-888-87--|
|-777-777-7/8-888-888-87--| (x6)
|-555-555-5/6-666-666-65--|
|--------------------------|
|----------------------|
|----------------------|
|----------------------|
|-32oo-32oo-3h2------|
|-32oo-32oo-3h2------| (x3)
|-32oo-32oo-3h2------|
|--------------------|
|--------------------|
|--------------------|
|-32oo-7-777h6------|
|-32oo-7-777h6------| (x1)
|-32oo-7-777h6------|
|-------------------|
|-------------------|
|-------------------|
|-32oo-32oo-3h2---|
|-32oo-32oo-3h2---| (x3)
|-32oo-32oo-3h2---|
|-----------------|
|-----------------|
|-----------------|
|-32oo-7-777h6---|
|-32oo-7-777h6---| (x1)
|-32oo-7-777h6---|
|-----------------------------|
|-----------------------------|
|-----------------------------|
|-7777-777777-888855-5555----| Starts 1:50
|-7777-777777-888855-5555----|
|-7777-777777-888855-5555----|
|-----------------------------------|
|-----------------------------------|
|-----------------------------------|
|-7777-777777-8888/1515-15151717----|
|-7777-777777-8888/1515-15151717----|
|-7777-777777-8888/1515-15151717----|
Bridge:
|--------------------------------------------------------------------|
|--------------------------------------------------------------------| Starts 2:19
|-17171717171717171717171717171717-18181818181818181818181818181818--|
|-17171717171717171717171717171717-18181818181818181818181818181818--| (x1)
|-15151515151515151515151515151515-16161616161616161616161616161616--|
|--------------------------------------------------------------------|
|----------------------------------------------------------|
|----------------------------------------------------------|
|-17171717171717171717171717171717-2020202019191919/2121--|
|-17171717171717171717171717171717-2020202019191919/2121--| (x1)
|-15151515151515151515151515151515-1818181817171717/1919--|
|----------------------------------------------------------|
|--------------------------------------------------------------------|
|--------------------------------------------------------------------|
|-17171717171717171717171717171717-18181818181818181818181818181818--|
|-17171717171717171717171717171717-18181818181818181818181818181818--| (x1)
|-15151515151515151515151515151515-16161616161616161616161616161616--|
|--------------------------------------------------------------------|
|----------------------------------------------------------|
|----------------------------------------------------------|
|-17171717171717171717171717171717-2020202019191919/2121--|
|-17171717171717171717171717171717-2020202019191919/2121--| (x1)
|-15151515151515151515151515151515-1818181817171717/1919--|
|----------------------------------------------------------| Ends 2:38
Hmmmm:
Starts 2:38 Ends 2:57
|--------------------------------------|
|--------------------------------------|
|-77-7h5-77-7h5-7h5ho--77-7h5-9h7-7h5--|
|-77-----77------------77--------------| (x3)
|-55-----55------------55--------------|
|--------------------------------------|
|--------------------------------------------|
|-----------------------------7h9h7h9h7h91--|
|-77-7h5-77-7h5-7h5ho--77-7h5-7h9h7h9h7h91--|
|-77-----77------------77--------------------| (x1)
|-55-----55------------55--------------------|
|--------------------------------------------|
|----------------------|
|----------------------|
|----------------------|
|-32oo-32oo-3h2------|
|-32oo-32oo-3h2------| (x3)
|-32oo-32oo-3h2------|
|--------------------|
|--------------------|
|--------------------|
|-32oo-7-777h6------|
|-32oo-7-777h6------| (x1)
|-32oo-7-777h6------|
|----------------------|
|----------------------|
|----------------------|
|-32oo-32oo-3h2------|
|-32oo-32oo-3h2------| (x3)
|-32oo-32oo-3h2------|
|--------------------|
|--------------------|
|--------------------|
|-32oo-7-777h6------|
|-32oo-7-777h6------| (x1)
|-32oo-7-777h6------|
|----------------|
|----------------|
|----------------|
|-32oo-3h201----|
|-32oo-3h201----| (x2)
|-32oo-3h201----|
|----------------|
|----------------|
|----------------|
|----------------|
|----------------|
|-7o------------|
|----------------|
|----------------|
|----------------|
|-32oo-3h201----|
|-32oo-3h201----| (x1)
|-32oo-3h201----|
There we go, made me quite pyscho doing this song, think I know
why its probably the only one on the net lol, not an easy one to tab in my view =/
Give me your views - [email protected]




Ваше мнение



Капча