I noticed that no-one has tabbed the guitar part to this song.
Intro
e|-------------------------------|
B|-------------------------------|
G|-------------------------------|
D|------3-------------3----------|
A|-1-3h4--0--4---1-3h4--0--4---3-|
E|---------------------------4---|
Chorus
e|----------------------------------------------------------|
B|----------------------------------------------------------|
G|----------------------------------------------------------|
D|7/8-8-8-8-2-2-2-2/3-3--3--6--7/8-8-8-8-2-2-2-2/3-3--3-1-1-|
A|7/8-8-8-8-2-2-2-2/3-3--3--6--7/8-8-8-8-2-2-2-2/3-3--3-1-1-|
E|5/6-6-6-6-0-0-0-0/1-1--1--4--5/6-6-6-6-0-0-0-0/1-1--1-x-x-|
(To keep the whole song in standard tuning I just mute the E where the lower
power chord should be)
Verse
e|-----------------------|
B|2-1--2-1--2-1--2-1-1---|
G|---------------------3-|
D|-----------------------|
A|-----------------------|
E|-----------------------|
Refrain
e|----------------|
B|----------------|
G|--3-------------|
D|--3--4--1--3----|
A|--1--4--1--3----|
E|-----4--1--3----|
For the last bits just mess around with the chords from the refrain. You get the general idea.
Intro x4
Verse x4
I 'm done with yesterday, tomorrow I will drop today
I cannot operate on what I can and cannot say
I put my foot in it- tomorrow is another day
Some ya win, some ya lose, the fish are out water
Chorus x2
You're bringing me down - Loser
You're bringing me down - Loser
Verse x4
I too have swallowed it, the promise of a better day
And blind is one thing but now the picture is grey
A little negative, but negative is how we play
Some you win, some you lose, the fish is out of water
Chorus x2
You're bringing me down - Loser
You're bringing me down
I turn it on again and you're gone
I turn it on again and you're gone
I turn it on again and you're gone
I turn around again, yeah
I turn it on again and you're gone
I turn it on again and you're gone
I turn it on again and you're gone
Some you win, some you lose
The fish are out of water
Verse x4
I guess I'm ready, I'm as ready as I'll ever be
It comes when it comes, it comes for everybody
Make no mistake about it, it will come for you
Some you win, some you lose
The fish are out of water
Chorus x2
You're bringing me down - Loser
You're bringing me down - Loser
Verse x4
You do what you do, let me do what I do
I'm gonna do it anyway, so why not do it too
And what if 'what if' turns out to be 'that's it for you'?
Some you win, some you lose
The fish are out of water
Chorus x2
You're bringing me down - Loser
You're bringing me down
Refrain x7
I turn it on again and you're gone
I turn it on again and you're gone
I turn it on again and you're gone
I turn around again, yeah
I turn it on again and you're gone
I turn it on again and you're gone
I turn it on again and you're gone
Some you win, some you lose
The fish are out of water
Me again, it's me again, yeah
Ain't I what the whole world wants to be?
Me again, it's me again
Last of the great pretenders my friend
Me again, it's me again
Ain't I what the whole world wants to be?
Me again, it's me again
Last of the great pretenders my friend
Refrain x7
I turn it on again and you're gone
I turn it on again and you're gone
I turn it on again and you're gone
I turn around again, yeah
I turn it on again and you're gone
I turn it on again and you're gone
I turn it on again and you're gone
Some you win, some you lose
Can anybody hear me?
Loser
Loser
Loser
(That's gotta hurt)




Ваше мнение



Капча