AVAILABLE IN ALL COLORS - One Minute Silence

By:Eric Koch ([email protected])

played with a 6 string guitar with very heavy distortion and a metal pick

Intro:
e|------------------------------------------------|
B|------------------------------------------------|
G|------------------------------------------------|
D|------------------------------------------------|
A|------1----------1----------1----------1--------|
E|-0-2-0------0-2-0------0-2-0------0-2-0-0-2-0-3-|

Verse:
e|----------------|
B|----------------|
G|----------------|
D|-0-x-x-3-x-x-x-x|
A|-0-4-0-1-4-5-x-x|
E|-0-2-0-x-2-3-x-x|

Chorus:
e|-----Im HAving Trouble----------------|
B|--------With The Chorus---------------|
G|-----------So If Anybody Knows--------|
D|----------please email me-------------|
A|--------------------------------------|
E|--------------------------------------|

Outro:
e|---------------------------------------------------------------------------|
B|---------------------------------------------------------------------------|
G|---------------------------------------------------------------------------|
D|---------------------------------------------------------------------------|
A|-4-5-7---------------------------------------------------------------------|
E|-2-3-5--------------- ------------------------------------------|

if u have any questions please email me and if u have the chorus please emai me
as well or email if u jsut want to piss me off [email protected]


Ваше мнение



Капча