Artist-One Minute Silence
Song-A Waste of Things to Come
Album-Available in all Colours
[email protected]
DROP D TUNING
h=hammer on p=pull off
BEGINING/CHORUS
G|---------------------|-------------3h4-----------|
D|---------------------|---------3h5---------------|
A|-----1h2-------------|-----1h2-------------------|
D|-3h5-----0h3-5---3p0-|-3h5--------------3h5------|

VERSE
G|-------------------------------------------------|
D|-------------------------------------------------|
A|-------------------------------------------------|
D|-3-4-5---3-4-5---3-4-5---3-4-5---5-4-3-----------|

CRUCIAL ENDING
G|-------------------------------------------------|
D|-------------------------------------------------|
A|-------------------------------------5-5-5-5-3-0-|
D|-0-0-0-2-0-3-0-0-0-5-0-3-0-0-0-2-0-0-------------|

G|-------------------------------------------------|
D|-------------------------------------------------|
A|-------------------------------------------------|
D|-0-0-0-2-0-3--0-0-0-5-0-3--0-0-0-2-0-0--1-1-1----|

G|-------------------------------------------------|
D|-------------------------------------------------|
A|-------------------------------------------------|
D|-0-0-0-2-0-3--1-1-1---0-0-0-2-0-3--1-1-1---------|




Ваше мнение



Капча