ONE MINUTE SILENCE --- A Day In The Light Of
Tabbed By: Boner ([email protected])
Tuning: Dropped D
G|--------0-0--------------0-0--------------0-0--------------0-0-5h7-|
D|-0--7-0----/8-7---0--7-0-----5h7---0--7-0----/8-7---0--7-0---------|
A|-------------------------------------------------------------------|
D|-0----0-5-5-------0----0-5-5-------0----0-5-5-------0----0-5-5-----|
(x2)
G|-----------0-0-----------------0-0-----|
D|-0000--7-0----/8-7---0000--7-0-----5h7-|
A|---------------------------------------|
D|-0000----0-5-5-------0000----0-5-5-----|
G|-----------0-0-----------------0-0-5h7-|
D|-0000--7-0----/8-7---0000--7-0---------|
A|---------------------------------------|
D|-0000----0-5-5-------0000----0-5-5-----|
G|-----------------------------------|
D|-----------------------------------|
A|-/55555555555555-/55555555555555-|
D|-----------------------------------|
G|--------------------------------------------|
D|----------------------------1212121212121212|




Ваше мнение



Капча