Artist: One Dollar Short
Song: Perfect Day
Tabbed by: Tim Bryant
Email: [email protected]

* ring chord
/ slide

Intro Pt 1
e|------------------------------------------------------------------------|
B|------------------------------------------------------------------------|
G|------------------------------------------------------------------------|
D|---2*---------4*--------------------------------------------------------|
A|---2*---------4*--------------------------------------------------------|
E|---0*---------2*--------------------------------------------------------|

Intro Pt 2 and Chorus
e|------------------------------------------------------------------------|
B|------------------------------------------------------------------------|
G|---4------------------9-------------------------------------------------|
D|---4-----4-----2------x-------------------------------------------------|
A|---2-----4-----2------7-------------------------------------------------|
E|---------2-----0--------------------------------------------------------|

Verse
e|------------------------------------------------------------------------|
B|------------------------------------------------------------------------|
G|----9----4----13----------9----4----------------------------------------|
D|----9----4----13----4-----9----4---6---4--------------------------------|
A|----7----2----11----4-----7----2---6---4--------------------------------|
E|--------------------2--------------4---2--------------------------------|
Pm................................

Bridge pt 1
e|------------------------------------------------------------------------|
B|------------------------------------------------------------------------|
G|----4-/-6-/-4*---4-/-6-/------------------------------------------------|
D|----4-/-6-/-4*---4-/-6-/-2*---------------------------------------------|
A|----2-/-4-/-2*---2-/-4-/-2*---------------------------------------------|
E|-----------------------/-0*---------------------------------------------|

Bridge Pt 2
e|------------------------------------------------------------------------|
B|------------------------------------------------------------------------|
G|---4----------4---------4--------4--------------------------------------|
D|---4-----2----4----2----4----2---4----6---4---2*---4--------------------|
A|---2-----2----2----2----2----2---2----6---4---2*---4--------------------|
E|---------0---------0---------0--------4---2---0*---2--------------------|

Structure

Lead intro x 4
Intro Pt 1 after 2nd time
Intro pt 2 x 2
Verse x 1 (one Guitar)
Verse x 1
Chorus x 4
Verse x 2
Chorus x 4
Bridge pt 1 x 2
Bridge pt 2 x 1
Chorus x 4
End on B power chord

-------------------------------------------------------------------------------




Ваше мнение



Капча