Artist: One Dollar Short
Song: From The Start
Tabbed By: Tim Bryant
Email: [email protected]
One Dollar Short – From the Start
-------------------------------------------------------------------------------
Intro
e|-3----------------8------7------3----------------8------7------3-----------
B|---3----------------8------8------3----------------8------8------3---------
G|-----0----------------0------0------0----------------0------0------0-------
D|---------------------------------------------------------------------------
A|---------------------------------------------------------------------------
E|---------------------------------------------------------------------------
Solo/Lead
e|--------------------------------------14----15-14-15-17-15-14--------------
B|----12----13-12-13-15-13-12-13-----15----15-------------------15-----------
G|-12----12----------------------12------------------------------------------
D|---------------------------------------------------------------------------
A|---------------------------------------------------------------------------
E|---------------------------------------------------------------------------
e|--------------------------------------14----15-14-15-17-15-14--------------
B|----12----13-12-13-15-13-12-13-----15----15-------------------15-----------
G|-12----12----------------------12------------------------------------------
D|---------------------------------------------------------------------------
A|---------------------------------------------------------------------------
E|---------------------------------------------------------------------------
Post solo x 1
e|---------------------------------------------------------------------------
B|----12----13-12-13-15-13-12-13---------------------------------------------
G|-12----12----------------------12------------------------------------------
D|---------------------------------------------------------------------------
A|---------------------------------------------------------------------------
E|---------------------------------------------------------------------------
Chorus x 3
e|---------------------------------------------------------------------------
B|---------------------------------------------------------------------------
G|-5-5-5-5-5-5-5-5-------------------7-7-7-7-7-7-7-7--9-9-9-9-9-9-9-9--------
D|-5-5-5-5-5-5-5-5--5-5-5-5-5-5-5-5--7-7-7-7-7-7-7-7--9-9-9-9-9-9-9-9--------
A|-3-3-3-3-3-3-3-3--5-5-5-5-5-5-5-5--5-5-5-5-5-5-5-5--7-7-7-7-7-7-7-7--------
E|------------------3-3-3-3-3-3-3-3------------------------------------------
Post Chorus x 1
e|---------------------------------------------------------------------------
B|---------------------------------------------------------------------------
G|-5-5-5-5-5-5-5-5-------------------7~--------------------------------------
D|-5-5-5-5-5-5-5-5--5-5-5-5-5-5-5-5--7~--------------------------------------
A|-3-3-3-3-3-3-3-3--5-5-5-5-5-5-5-5--5~--------------------------------------
E|------------------3-3-3-3-3-3-3-3------------------------------------------
Bridge x 1
e|---------------------------------------------------------------------------
B|--------------------------------------------------------------------------|
G|-7~----------------------------11-12-7~----------------------------11-12-7-
D|---------------------------------------------------------------------------
A|-5~-----------------------------9-10-5~-----------------------------9-10-5-
E|---------------------------------------------------------------------------
Solo
Finish x 3
e|---------------------------------------------------------------------------
B|---------------------------------------------------------------------------
G|------------------5-5-5-5-5-5-5-5---------7-7-7---------7-7-7--------------
D|-3-3-3-3-3-3-3-3--5-5-5-5-5-5-5-5--5-5-5--7-7-7--5-5-5--7-7-7--------------
A|-3-3-3-3-3-3-3-3--3-3-3-3-3-3-3-3--5-5-5--5-5-5--5-5-5--5-5-5--------------
E|-1-1-1-1-1-1-1-1-------------------3-3-3---------3-3-3---------------------
Post Finish x 1
e|---------------------------------------------------------------------------
B|---------------------------------------------------------------------------
G|------------------5~----------------------7-7-7----------------------------
D|-3-3-3-3-3-3-3-3--5~---------------5-5-5--7-7-7--5-------------------------
A|-3-3-3-3-3-3-3-3--3~---------------5-5-5--5-5-5--5-------------------------
E|-1-1-1-1-1-1-1-1-------------------3-3-3---------3-------------------------
That’s it enjoy email comments corrections other ods tabs to [email protected]




Ваше мнение



Капча