Song: Stupid
Artist: Oleander
Album: February Son
Tabbed by: Brad Schantz ([email protected])

Intro:

guitar 1
E|-------------------|
B|-------------------|
G|-------------------|
D|-7-7-7-7-6-6-6-6---| repeat
A|-7-7-7-7-4-4-4-4---|
E|-5-5-5-5-4-4-4-4---|

fill
E|----------|
B|----------|
G|-6^(1/2)6-|
D|----------|
A|----------|
E|----------|

guitar 2
E|------------------------------5^(1/2)5-----
B|-5/75--------------5/75------------------
G|--------7--6---------------7---------------
D|--------------7----------------------------
A|-------------------------------------------
E|-------------------------------------------

--------------------------------------------|
--5/75-------------------------------------|
---------7--6--4h6p4----4--6--7--6--4-------|
---------------------7-----------------7----|
--------------------------------------------|
--------------------------------------------|

Verse:

bass(same notes as intro)

Chorus:

same as intro guitar one

Bridge:

E|---------------------------------------------------
B|---------------------------------------------------
G|---------------------------------------------------
D|-2--2-2-2-2-2-2-2-2-2-2--4--7--7-7-7-7-7-7-7-7-7-7-
A|-2--2-2-2-2-2-2-2-2-2-2--4--5--5-5-5-5-5-5-5-5-5-5-
E|-0--0-0-0-0-0-0-0-0-0-0--2--5--5-5-5-5-5-5-5-5-5-5-

-----------------------------------------------------
-----------------------------------------------------
-----------------------------------------------------
-2--2--2-2-2-2-2-2-2-2-2-2--4--7--7-7-7-7-7-7-7--6-6-
-2--2--2-2-2-2-2-2-2-2-2-2--4--5--5-5-5-5-5-5-5--4-4-
-0--0--0-0-0-0-0-0-0-0-0-0--2--5--5-5-5-5-5-5-5--4-4-

---------------|
---------------|
---------------|
-6-6-9-9-9-9---|
-4-4-7-7-7-7---|
-4-4-7-7-7-7---|

Solo:

E|------------------------------5^(1/2)5--------------
B|-5/75--------------5/75------------------5/75----
G|--------7--6---------------7----------------------7-
D|--------------7-------------------------------------
A|----------------------------------------------------E|----------------------------------------------------

----------------------------------5--4--------------5-
-------------------------------5--------7--5-----5----
-6--4h6p4----4--6--7--6--4--6-----------------6-------
----------7-------------------------------------------
------------------------------------------------------
------------------------------------------------------

-4--7--5--------5--4--------------5--4--7--5--
-------------5--------7--5-----5--------------
----------6-----------------6-----------------
----------------------------------------------
----------------------------------------------
----------------------------------------------

-----------12------------------------------------12-
-12^(full)-----12^(full)12--10--9--10--12^(full)----
----------------------------------------------------
----------------------------------------------------
----------------------------------------------------
----------------------------------------------------

-12^(full)12--10--9------------12---------------------
---------------------12^(full)-----12^(full)12--10--9-
------------------------------------------------------
------------------------------------------------------
------------------------------------------------------
------------------------------------------------------

-------------------------------------------|
-10--9--10--10^(1/2)10--9------------------|
---------------------------11^(1/2)11--9---|
-------------------------------------------|
-------------------------------------------|
-------------------------------------------|

Outro:

guitar 1 same as intro

guitar 2
E|-------5--4-------|
B|----5--------7--5-|
G|-6----------------| repeat
D|------------------|
A|------------------|
E|------------------|




Ваше мнение



Капча