Person: Carl Edwards
song: Shrinking the Blob
artist: Oleander
tab: Tuning: Db Ab Db Gb Bb Eb
Intro
Guitar 1 (until :19, pull at :17)
E---------------------------------------------------------
B-5-3-5-3-5-3-5-3-5-3-5-3-5-3-5-3-5-3-5-3-5-5-3-5p^-------
G---------------------------------------------------------
D---------------------------------------------------------
A---------------------------------------------------------
D---------------------------------------------------------
Guitar 2
E---------------------------------------------------------
B---------------------------------------------------------
G------------5----------------------5---------------------
D-7-----3----5-X8-5-----7------3----5-X8-5------6---------
A-7-X8--3-X8-3----5-X8--7-X8---3-X8-3----5-X4---6-X4------
D-7-----3---------5-----7------3---------5------6---------
Verse 1
Guitar 1
E---------------------------------------------------------
B---------------------------------------------------------
G---------5-------------------------5---------------------
D-7-------5-X8--3------5-----7------5-X8-3------5----6----X2
A-7-X8----3-----3-X8---5-X8--7-X8---3------3-X8-5-X4-6-X4-
D-7-------------3------5-----7-------------3----5----6----
(palm muted) (last 5 and 6
not muted)
Guitar 2 (on second time through Guitar 1 riff)
E---------------------------------------------------------
B---------------------------------------------------------
G------5-5-----------------------5-5----------------------
D-7-7-------3-3--5-5--------7-7-------3-3---5------6------
A-------------------------------------------5-X4---6-X4---
D-------------------------------------------5------6------
Chorus
Both Guitars play Guitar 2 Intro
Verse 2
Same as Verse 1
Chorus
Finish this Chorus with little riff:
E----------|----------------------------------------------
B----------|----------------------------------------------
G----------|----------7-------7---7-----------------------
D-3-2-1-0--|----0-----7---0---7---7-----------------------
A-3-2-1-0--|----0-----5---0---5---5-----------------------
D-3-2-1-0--|----0-----0---0---0---0-----------------------
(listen for exact timings)
Bridge
Guitar 1
E---------------------------------------------------------
B---------------------------------------------------------
G---------------------------------------------------------
D-8-8-8-8-7-6-5-4-4---8-8-8-8-8-8-8-7-6-5-4-4-4-5-5-5-----
A-8-8-8-8-7-6-5-4-4---8-8-8-8-8-8-8-7-6-5-4-4-4-5-5-5-----
D-8-8-8-8-7-6-5-4-4---8-8-8-8-8-8-8-7-6-5-4-4-4-5-5-5-----
(palm muted, repeat numbers 8 and 4 as needed) (slowly release palm
muting on last 5)
Guitar 2
E---------------------------------------------------------
B---------------------------------------------------------
G---------------------------------------------------------
D---------------------------------------------------------
A-5-7-5-7-8--5-7-5-7-8-10-8--7-6-5-4--4-5-4-3--4-5-4-5-4--
D--------------------------------------------8------------
----------------------------------------------------------
----------------------------------------------------------
----------------------------------------------------------
----------------------------------------------------------
--5-7-5-7-8---5-7-5-7-8-10-8---7-6-5-4--------------------
----------------------------------------------------------
Chorus
Intro

Lyrics
Verse 1
The deeper you get, the more you sink into it
Faster you fall, the more you crawl away from it
We’re Siamese at the knees she said and we’re weighted
We’re Siamese if you please and she said that we’re weighted
Chorus
We are right here with you
We are right here with you
You came the wait is over
And now you’re mine
And you’ll never ever be alone
Verse 2
The more that you make the less you should take from others
The longer you live the more you should give to your brothers
Siamese at the knees she said and we’re weighted
We’re Siamese if you please and she said that we’re weighted
Chorus
Bridge
Can’t believe how much you’ve grown in such a short time
Can’t believe how much you’ve grown and are growing
Ornery, but lovingly you scream when you’re hungry
Can’t believe how much you’ve grown and are growing
Right in front of my eyes
Chorus




Ваше мнение



Капча