I Walk Alone
Transcribed by Dominator!
From the Oleander CD - February Son
All Guitars tune down 1/2 step
I have been waiting for this tune to come out in one of the many guitar
mags offering songs in tablature. Well, I got tired of waiting. The intro
Chords are strummed freely and I have tried to indicate a pattern in the tab.
Just listen to the CD and you will pick it up. When the band enters arpeggiate
the notes letting them ring while forming a Dsus2 chord in the first position.
On the third pass in the second verse a second guitar plays fig. A1. Just let
the notes ring as you play them. Here the Dsus2 chord form is played in the
fifth position.
The Solo is pretty straight forward. If you have any questions you can email
me at [email protected]
Intro
Dsus2 C#m/5+
E||---------------------------|--------------------------|
B||---------5-----5--5--5--5--|--------5-----5--5--5--5--|
G||*--------7-----7--7--7--7--|--------6-----6--6--6--6--|
D||*--------7--7--------7--7--|--------7--7--------7--7--|
A||---5--5--5--5--------5--5--|--4--4--4--4--------4--4--|
E||---------------------------|--------------------------|
I can't take this anymore....
C Bm 3x
E|--------------------------|---------------------------||
B|--------5-----5--5--5--5--|--------3-----3--3--3--3---||
G|--------5--5--5--5--5--5--|--------4-----4--4--4--4--*||
D|--------x--x--x--x--x--x--|--------4--4--------4--4--*||
A|--3--3--3--3--3--3--3--3--|--2--2--2--2--------2--2---||
E|--------------------------|---------------------------||
Dsus2 C#m/5+
E|--------------------------|--------------------------|
B|--------5-----5--5--5--5--|--------5-----5--5--5--5--|
G|--------7-----7--7--7--7--|--------6-----6--6--6--6--|
D|--------7--7--------7--7--|--------7--7--------7--7--|
A|--5--5--5--5--------5--5--|--4--4--4--4--------4--4--|
E|--------------------------|--------------------------|
C Bm
--------------------------|--2----------------|
--------5-----5--5--5--5--|--3----------------|
--------5--5--5--5--5--5--|--4----------------|
--------x--x--x--x--x--x--|--4----------------|
--3--3--3--3--3--3--3--3--|--2----------------|
--------------------------|-------------------|
Band Enters

-------0--------------|--0----2--------------|
------------3---------|------------3---------|
-----------------2----|-----------------2----|
----0-----------------|----------------------|
----------------------|----------------------|
----------------------|----------------------|
Let notes ring from Dsus2 chord form

--0----3--------------|--2---------0---------|
------------3---------|-------3---------3----|
-----------------2----|----------------------|
----------------------|----------------------|
----------------------|----------------------|
----------------------|----------------------|

-------0--------------|--0----2--------------|
------------3---------|------------3---------|
--2--------------2----|-----------------2----|
----------------------|----------------------|
----------------------|----------------------|
----------------------|----------------------|

--0----3--------------|--2---------0---------|-------------------|
------------3---------|-------3---------3----|-------------------|
-----------------2----|----------------------|--2~---------------|
----------------------|----------------------|-------------------|
----------------------|----------------------|-------------------|
----------------------|----------------------|-------------------|
Section A
D5 C#/5+
|---------------------------|--------------------------|
|---------------------------|--------------------------|
|*--------------------------|--------------------------|
|*--7--7--7--7--7--7--7--7--|--7--7--7--7--7--7--7--7--|
|---5--5--5--5--5--5--5--5--|--4--4--4--4--4--4--4--4--|
|---------------------------|--------------------------|
I can't take this anymore.......
C5 Bm 4x
--------------------------|---------------------------||
--------------------------|---------------------------||
--------------------------|--------------------------*||
--5--5--5--5--5--5--5--5--|--4--4--4--4--4--4--4--4--*||
--3--3--3--3--3--3--3--3--|--2--2--2--2--2--2--2--2---||
--------------------------|---------------------------||
Section A1
---------------------|---------------------|
--------5------------|--------5------------|
-----7---------------|-----7---------------|
--7------------------|--7------------------|
---------------------|---------------------|
---------------------|---------------------|
Play A1 on the 3rd and 4th time of Section A

-----------------------|----------------------|
--------8---------7----|-------5--------------|
-----7-------7---------|--7---------7---------|
--7--------------------|-----------------7----|
-----------------------|----------------------|
-----------------------|----------------------|

---------------------|---------------------|
--------5------------|--------5------------|
-----7---------------|-----7---------------|
--7------------------|--7------------------|
---------------------|---------------------|
---------------------|---------------------|
End Section A1
-----------------------|---------------------|
--------8---------7----|-------5-------------|
-----7-------7---------|--7---------7--------|
--7--------------------|---------------------|
-----------------------|---------------------|
-----------------------|---------------------|
A#5 A#5
--------------------------|--------------------------|
--------------------------|--------------------------|
--3--3--3--3--3--3--3--3--|--3--3--3--3--3--3--3--3--|
--3--3--3--3--3--3--3--3--|--3--3--3--3--3--3--3--3--|
--1--1--1--1--1--1--1--1--|--1--1--1--1--1--1--1--1--|
--------------------------|--------------------------|
Livin' out our
DaddA
--------------------------|---------------------------------|
--7-----------------------|---------------------------------|
--7--7--7--7--7/-9--9--9--|--9/-11--11--11--11/-12--12--12--|
--7-----------------------|---------------------------------|
--5--5--5--5--5/-7--7--7--|--7/-9---9---9---9/--10--10--10--|
--5-----------------------|---------------------------------|
dreams
A#5
--------------------------|--------------------------|
--------------------------|--------------------------|
--3--3--3--3--3--3--3--3--|--3--3--3--3--3--3--3--3--|
--3--3--3--3--3--3--3--3--|--3--3--3--3--3--3--3--3--|
--1--1--1--1--1--1--1--1--|--1--1--1--1--1--1--1--1--|
--------------------------|--------------------------|
Livin' out
DaddA G Bm A5
-----------------3--3--3--|------2--2--2---------------|
--7--7--7--------3--3--3--|------3--3--3---------------|
--7--7--7----x-x-4--4--4--|--x-x-4--4--4--2--x-x-x-2---|
--7--7--7----x-x-5--5--5--|--x-x-4--4--4--2--x-x-x-2---|
--5--5--5----x-x-5--5--5--|--x-x-2--2--2--0--x-x-x-0---|
--5--5--5--------3--3--3--|----------------------------|
Everybody and everything.....
DaddA G Bm A5
-----------------3--3--3--|------2--2--2---------------|
--7--7--7--------3--3--3--|------3--3--3---------------|
--7--7--7----x-x-4--4--4--|--x-x-4--4--4--x--2--x-x-x--|
--7--7--7----x-x-5--5--5--|--x-x-4--4--4--x--2--x-x-x--|
--5--5--5----x-x-5--5--5--|--x-x-2--2--2--x--0--x-x-x--|
--5--5--5--------3--3--3--|----------------------------|
DaddA G Bm A5
-----------------3--3--3--|------2--2--2---------------|
--7--7--7--------3--3--3--|------3--3--3---------------|
--7--7--7----x-x-4--4--4--|--x-x-4--4--4--2--x-x-x-2---|
--7--7--7----x-x-5--5--5--|--x-x-4--4--4--2--x-x-x-2---|
--5--5--5----x-x-5--5--5--|--x-x-2--2--2--0--x-x-x-0---|
--5--5--5--------3--3--3--|----------------------------|
DaddA G Bm A5
-----------------3--3--3--|------2--2--------------------|
--7--7--7--------3--3--3--|------3--3--------------------|
--7--7--7----x-x-4--4--4--|--x-x-4--4--x-x-x-x--2--2-x-x-|
--7--7--7----x-x-5--5--5--|--x-x-4--4--x-x-x-x--2--2-x-x-|
--5--5--5----x-x-5--5--5--|--x-x-2--2--x-x-x-x--0--0-x-x-|
--5--5--5--------3--3--3--|------------------------------|
Solo
E||------------------------------|-------------------------|
B||------------------------------|-------------------------|
G||-----7-7-7-7-7-7--------------|-------------------------|
D||--7/-9-9-9-9-9-9-97-7-7-7~~--|-----4--5p-4-----4-------|
A||------------------------------|--7-----------7-----5~~--|
E||------------------------------|-------------------------|
Full (hold)
----------------------------|----------------------------|
----------------------------|-------------------10-------|
-----7-7-7-7----------------|-----7---7--9-7-9b-----9r---|
--7/-9-9-9-9-97-7-7-7------|--/9---9--------------------|
----------------------------|----------------------------|
----------------------------|----------------------------|
1/2
-----------------------------|--------------------------|
-----------------------------|--------------------------|
--7--7h9p7---7--7h9p7---7----|-----7---7--9-7-9r---7----|
-----------9----------9------|--/9---9------------------|
-----------------------------|--------------------------|
-----------------------------|--------------------------|

-------------------10-------10-|
--10-------10------10-------10-|
-----7h-9-----7-------7h-9-----|
-------------------------------|
-------------------------------|
-------------------------------|

-----10-----10----10------10---10--|
-----10-----10----10------10---10--|
--7-----7h9----7-----7h9-----7-----|
-----------------------------------|
-----------------------------------|
-----------------------------------|

------------------------------|------------------------------|
------------------------------|------------------------------|
--3--3-3-3--3-3-3/-5-5-5--5-5-|--5/-7-7-7--7-7-7/-9-9-9--9-9-|
--x--x-x-x--x-x-x--x-x-x--x-x-|--x--x-x-x--x-x-x--x-x-x--x-x-|
--1--1-1-1--1-1-1/-3-3-3--3-3-|--3/-5-5-5--5-5-5/-7-7-7--7-7-|
------------------------------|------------------------------|
Living...........................................Blistfully
DaddA
------------------------------------||
--7--------------(7)----------------||
--7--------------(7)----------------||
--7--------------(7)----------------||
--5--------------(5)----------------||
--5--------------(5)----------------||
Let Ring
Full 1/2 1/2
E||-------------------|--------------------|--------------------|
B||--8b---------------|--12b---------------|--12r---------------|
G||-------------------|--------------------|--------------------|
D||-------------------|--------------------|--------------------|
A||-------------------|--------------------|--------------------|
E||-------------------|--------------------|--------------------|
Play with Section A
I guess you had to step away........
Full 1/2 Full
-------------------|--------------------|--------------------||
--8b---------------|--12b---------------|--13b---------------||
-------------------|--------------------|--------------------||
-------------------|--------------------|--------------------||
-------------------|--------------------|--------------------||
-------------------|--------------------|--------------------||
Play Section A1 and then play the following sections
A#5
--------------------------|--------------------------|
--------------------------|--------------------------|
--3--3--3--3--3--3--3--3--|--3--3--3--3--3--3--3--3--|
--3--3--3--3--3--3--3--3--|--3--3--3--3--3--3--3--3--|
--1--1--1--1--1--1--1--1--|--1--1--1--1--1--1--1--1--|
--------------------------|--------------------------|
Livin' out
DaddA G Bm A5
-----------------3--3--3--|------2--2--2---------------|
--7--7--7--------3--3--3--|------3--3--3---------------|
--7--7--7----x-x-4--4--4--|--x-x-4--4--4--2--x-x-x-2---|
--7--7--7----x-x-5--5--5--|--x-x-4--4--4--2--x-x-x-2---|
--5--5--5----x-x-5--5--5--|--x-x-2--2--2--0--x-x-x-0---|
--5--5--5--------3--3--3--|----------------------------|
Everybody and everything.....
DaddA G Bm A5
-----------------3--3--3--|------2--2--2---------------|
--7--7--7--------3--3--3--|------3--3--3---------------|
--7--7--7----x-x-4--4--4--|--x-x-4--4--4--x--2--x-x-x--|
--7--7--7----x-x-5--5--5--|--x-x-4--4--4--x--2--x-x-x--|
--5--5--5----x-x-5--5--5--|--x-x-2--2--2--x--0--x-x-x--|
--5--5--5--------3--3--3--|----------------------------|
DaddA G Bm A5
-----------------3--3--3--|------2--2--2---------------|
--7--7--7--------3--3--3--|------3--3--3---------------|
--7--7--7----x-x-4--4--4--|--x-x-4--4--4--2--x-x-x-2---|
--7--7--7----x-x-5--5--5--|--x-x-4--4--4--2--x-x-x-2---|
--5--5--5----x-x-5--5--5--|--x-x-2--2--2--0--x-x-x-0---|
--5--5--5--------3--3--3--|----------------------------|
DaddA G Bm A5
-----------------3--3--3--|------2--2--------------------|
--7--7--7--------3--3--3--|------3--3--------------------|
--7--7--7----x-x-4--4--4--|--x-x-4--4--x-x-x-x--2--2-x-x-|
--7--7--7----x-x-5--5--5--|--x-x-4--4--x-x-x-x--2--2-x-x-|
--5--5--5----x-x-5--5--5--|--x-x-2--2--x-x-x-x--0--0-x-x-|
--5--5--5--------3--3--3--|------------------------------|
E||------------------------------|
B||------------------------------|
G||--7--7-7-7--7-7-7/-9-9-9--9-9-|
D||--x--x-x-x--x-x-x--x-x-x--x-x-|
A||--5--5-5-5--5-5-5/-7-7-7--7-7-|
E||------------------------------|

-----------------------------------------|
-----------------------------------------|
--9/-11-11-11--11-11-11/-14-14-14--14-14-|
--x--x--x--x---x--x--x---x--x--x---x--x--|
--7/-9--9--9---9--9--9/--12-12-12--12-12-|
-----------------------------------------|

------------------------------|
------------------------------|
--7--7-7-7--7-7-7/-9-9-9--9-9-|
--x--x-x-x--x-x-x--x-x-x--x-x-|
--5--5-5-5--5-5-5/-7-7-7--7-7-|
------------------------------|

-----------------------------------------|
-----------------------------------------|
--9/-11-11-11--11-11-11/-14-14-14/-16-16-|
--x--x--x--x---x--x--x---x--x--x---x--x--|
--7/-9--9--9---9--9--9/--12-12-12/-14-14-|
-----------------------------------------|

------------------------------------------|
------------------------------------------|
--16-14-14-14/-16-16-16-14-14-14-11-11-|
--x---x--x--x---x--x--x---x--x--x---x--x--|
--14-12-12-12/-14-14-14-12-12-12-9--9--|
------------------------------------------|

-------------------------------------|
-------------------------------------|
--11/-12-12-12-11-11-11-9-9-9-7-7-|
--x---x--x--x---x--x--x---x-x-x--x-x-|
--9/--10-10-10-9--9--9--7-7-7-5-5-|
-------------------------------------|
DaddA G Bm A5
----------------3--3----------|--2--2------------------------|
--7--7----------3--3----------|--3--3------------------------|
--7--7--x-x-x-x-4--4--x-x-x-x-|--4--4--x-x-x-x-2--2--x-x-x-x-|
--7--7--x-x-x-x-5--5--x-x-x-x-|--4--4--x-x-x-x-2--2--x-x-x-x-|
--5--5--x-x-x-x-5--5--x-x-x-x-|--2--2--x-x-x-x-0--0--x-x-x-x-|
--5--5----------3--3----------|------------------------------|
DaddA
-------------(7)------||
--7----------(7)------||
--7----------(7)------||
--7----------(7)------||
--5----------(5)------||
--5----------(5)------||
Let Ring




Ваше мнение



Капча