Band: Oleander
Song: How Could I
Intro: (also used for the verses, but not with the exact same
pattern,listen
to the cd to find out exactly)
e---------------------------6--------------------------6----------------------------------------------------
B----------------7----------------------------7----------------------------------------------7-------------
G-----------8--------8-------------------8------8-------------------------------8------------------------
D-----------------------------------------------------------------------------9--------9-------------------
A---------------------------------------------------------------------7-------------------------------------
E----4-----------------------------4-----------------------------------------------------------------------
e------------------------------------------------
B-----------------------------7------------------
G----------------8-------------------------------
D-----------9--------9---------------------------
A----7-------------------------------------------
E------------------------------------------------
fill: (also used for the beginning of the solo) listen to the cd for
the
pattern
e--------------------------------------------------------
B------11----------------------------------------------
G------------11----------------------------------------
D---------------------9----11-----9-------------------
A----------------------------------------9-----11------
E--------------------------------------------------------
Chorus: (listen to cd for pattern)
e-----------------------------------------
B-----------------------------------------
G----4-----------------------------------
D----4-----4-------2-------6-----------
A----2-----4-------2-------6-----------
E-----------2-------0-------4-----------
Thats it, except for the rest of the solo, its really distorted and
hard to
figure out, just play around with it.
ENJOY.




Ваше мнение



Капча