Oleander,Are You There.
Tabbed by Robert Scheidt,[email protected]

Here is a tab for Oleander - Are You There
This was done quickly so if you think something is wrong, your probably right.

Song : Are You There
Band : Oleander

tab by Robert Scheidt
corrections or insults -> [email protected]

Tune your guitar down a half step and drop D

First Intro part thing
D#||--10--10--10--10--10--10--10--10--
A#||--x---x---x---x---x---x---x---x---
F#||--7---7---7---7---7---7---7---7---
C#||----------------------------------
G#||----------------------------------
C#||----------------------------------

Then bend it up over the phat metal stuff
|--10--10--10--10--10--10--10--10b-|
|--x---x---x---x---x---x---x---x---|
|--7---7---7---7---7---7---7---7b--|
|----------------------------------|
|----------------------------------|
|----------------------------------|

Here is the phat metalness
---------------------|
---------------------|
---------------------|
--0----8h7--8h7------|
--0----8h7--8h7------|
--0----8h7--8h7------|

And the really phat heavy doodly
---------------------------------|
---------------------------------|
---------------------------------|
--0--0--8h7--8h7--8h7--8h7--8----|
--0--0--8h7--8h7--8h7--8h7--8----|
--0--0--8h7--8h7--8h7--8h7--8----|


And the amazing chorus
-----------------------|
-----------------------|
-------5---------7--9--|
--3----5----5----7--9--|
--3----3----5----5--7--|
--3---------5----------|

The solo is pretty sweet and very easy so I'm not gonna tab it all out for ya.
It's mostly just...

|----------------------------------------------|
|----------------------------------------------|
|-----14-15-14-12-10-12------14-15-14-12-10-12-|
|-12----------------------10-------------------|
|----------------------------------------------|
|----------------------------------------------|

And some other stuff you could probably figure out.




Ваше мнение



Капча